Oops, an error
Loading. Please wait.

Take Me Now tab

version 1
version 1

Whole song

Interactive

6,650 views 1 this week
4 commentsread comments
1 2 3 4 5
x 6
add to favorites
×
Save as Personal and add changes to this tab that will be seen only by you. Learn more ›
×
You can save this tab as Personal to edit and correct it or add notes. All changes will be seen only by you. Learn more »
launch autoscroll
font size
0
reset
how to read this tab
guitar tuner
edit
Autoscroll
slow
fast
+/-
esc
set tempo
stop
-------------------------------------------------------------------------------
                             Take me now - Blessthefall
-------------------------------------------------------------------------------
Tabbed by:DropDead1
Email:Daniel_wherestheboat00@yahoo.com

Tuning:Drop D

e|---------------------------------------------|
B|---------------------------------------------|
G|---------------------------------------------|
D|---------------------------------------------|
A|-0-0-0--0-0--0-0-0--0-0-0--0-0--0-0-0-0-0-0--|
D|-0-0-0--0-0--0-0-0--0-0-0--0-0--0-0-0-0-0-0--|

e|---------------------------------------------|
B|---------------------------------------------|
G|---------------------------------------------|
D|---------------------------------------------| (2x)
A|-3-3-3--3-3--3-3-3--2-2-2--3-3-2-2-2-2-------|
D|-3-3-3--3-3--3-3-3--2-2-2--3-3-2-2-2-2-------|

e|---------------------------------------------|
B|---------------------------------------------|
G|---------------------------------------------|
D|---------------------------------------------|
A|-0-0-0--0-0--0-0-0--0-0-0--0-0--0-0-0--------|
D|-0-0-0--0-0--0-0-0--0-0-0--0-0--0-0-0--------|

e|---------------------------------------------|
B|---------------------------------------------|
G|---------------------------------------------|
D|---------------------------------------------| (2x)
A|-3-3-3--3-3--3-3-3--2-2-2--3-3--2-2-2--2-2---|
D|-3-3-3--3-3--3-3-3--2-2-2--3-3--2-2-2--2-2---|

e|------------------------------------------------------------|
B|------------------------------------------------------------|
G|------------------------------------------------------------|
D|-0---------0---------3--------------------------------------|
A|-0--0-0-0--0--0-0-0--3--3-3-3-2-2-2-2-2-2-2-2-3-3-3-3-2-2-2-|
D|-0--0-0-0--0--0-0-0--3--3-3-3-2-2-2-2-2-2-2-2-3-3-3-3-2-2-2-|

e|------------------------------------------------------------|
B|------------------------------------------------------------|
G|-------------------7/9/10-------------------9/10/12---------|
D|------------------------------------------------------------|
A|-0-0-0--0-0-0-0-0--5/7/8---0-0-0--0-0-0-0-0-7/8/10----------|
D|-0-0-0--0-0-0-0-0----------0-0-0--0-0-0-0-0-----------------|

e|------------------------------------------------------------|
B|------------------------------------------------------------|
G|------------------12\10-9-----------------------------------|
D|-------------------------------------------------(2x)--0----|
A|-3-3-3--3-3-3-3-3-10\8--7--2-2-2--3-3--2-2-2-2---------0----|
D|-3-3-3--3-3-3-3-3----------2-2-2--3-3--2-2-2-2---------0----|


So that is all guitar ones part, you might have to figure out some of the strumming 
though. And here is the tapping part for guitar 2. Not exactaly it but for the most part. 
i am not the best at tabing the tapping parts.


Intro(fast)
e|------------------------------------------------------------|
B|------------------------------------------------------------|
G|-9-2h5-9-2h5-9-2h5-9-2h5-10-2h5-10-2h5-7-2h5-7-2h5----------|
D|------------------------------------------------------------|(8x)
A|------------------------------------------------------------|
D|------------------------------------------------------------|

(slower)
e|------------------------------------------------------------|
B|------------------------------------------------------------|
G|-9-2h5-9-2h5-9-2h5-10-2h5-7-2-7-2---------------------------|
D|------------------------------------------------------------|(12x)
A|------------------------------------------------------------|
D|------------------------------------------------------------|

Outro(fast
e|------------------------------------------------------------|
B|-17-10h13-17-10h13-17-10h13-17-10h13-18-10h13-18-10h13------|
G|------------------------------------------------------------|
D|------------------------------------------------------------|
A|------------------------------------------------------------|
D|------------------------------------------------------------|

e|------------------------------------------------------------|
B|-15-10h13-15-10h13------------------------------------------|
G|------------------------------------------------------------|
D|------------------------------------------------------------|(4x)
A|------------------------------------------------------------|
D|------------------------------------------------------------|

(slower)
e|------------------------------------------------------------|
B|-17-10h13-17-10h13-17-10h13-18-10h13-15-10-15-10------------|
G|------------------------------------------------------------|
D|------------------------------------------------------------|(7x)
A|------------------------------------------------------------|
D|------------------------------------------------------------|

| /  slide up
| \  slide down
| h  hammer-on
| p  pull-off
| ~  vibrato
| +  harmonic
| x  Mute note
===============================================================================
Suggest correction
Creating personal tab
Creating personal tab
You can edit any tab online and save it as your Personal.

You can edit, replace or remove any tab part or add personal notes – all changes will be seen only by you.

Personal tabs can be accessed anytime from any device, even offline.
Learn more »
comments
print report bad tab
4 comments total. Showing first comments.
0 reply
Gil310 372 Oct 29, 2007 09:13 PM

:D
Preety good.

+1 reply
JessicaGonzo 231 Feb 20, 2009 06:15 PM

i liked how you tabbed the tapping. i actualy understood it.

0 reply
someguy9d 10 Apr 01, 2009 06:15 AM

sick man sweet tab for a not well known song.

guest
You may want to rate the tab now too:
select rating
Wanna post a correction for this tab? Suggest correction