Oops, an error
Loading. Please wait.

Times Like These bass

version 1
version 1

Whole song

Interactive

3,942 views 1 this week
no commentswrite comment
1 2 3 4 5
3 more votes to show rating
add to favorites
×
Save as Personal and add changes to this tab that will be seen only by you. Learn more ›
×
You can save this tab as Personal to edit and correct it or add notes. All changes will be seen only by you. Learn more »
launch autoscroll
font size
0
reset
guitar tuner
edit
Autoscroll
slow
fast
+/-
esc
set tempo
stop
Tabbed By: Cory

Song: Times Like These
Artist: Blessthefall
Album: His Last Walk

Tuning: Drop D


Key:
~ = Let the note ring
/ = Slide up
\ = Slide down

Intro (Feedback)

(You make me whole, I want to...)
G|----------------------------------------------|
D|----------------------------------------------|
A|----------------------------------------------|
D|00-0-00-000000-0-0-0---00-0-00-000000-0-0-0---|

(thank you for this, I want to...)
G|----------------------------------------------|
D|----------------------------------------------|
A|----------------------------------------------|
D|33-3-33-333333-3-3-3---88-8-88-888888-8-8-8---|

(I want to thank you for, i want to, i want to...)
G|----------------------------------------------|
D|----------------------------------------------|
A|----------------------------------------------|
D|00-0-00-000000-0-0-0---00-0-00-000000-0-0-0---|

(thank you for this, I want to...)
G|----------------------------------------------|
D|----------------------------------------------|
A|----------------------------------------------|
D|33-3-33-333333-3-3-3---88-8-88-888888-8-8-8---|

(I wanna thank you for this chance to be angels)
G|----------------------------|
D|----------------------------|
A|----------------------------|
D|000000---3/---000000---12\--|

(You push me to strive harder when I'm unable)
G|------------------------------------------------------|
D|------------------------------------------------------|
A|------------------------------------------------------|
D|8-8888-8-8888-8-8888-8-8888-8-8888-8-8888-8-8888-835--|

(I want, you said, I need this)
G|----------------------------|
D|----------------------------|
A|----------------------------|
D|000000---3/---000000---12\--|

(I want, you said, don't leave this)
G|------------------------------------------------------|
D|------------------------------------------------------|
A|------------------------------------------------------|
D|8-8888-8-8888-8-8888-8-8888-8-8888-8-8888-8-8888-835--|

(Now's our time we're gonna make things right pull through to...
G|----------------------------|
D|----------------------------|
A|----------------------------|
D|000000--------000000--------|

(night tonight tonight tonight)
G|------------------------------------------------------|
D|------------------------------------------------------|
A|------------------------------------------------------|
D|8-8888-8-8888-8-8888-8-8888-8-8888-8-8888-8-8888-835--| x2

(I remember when we were younger)
G|----------------------------------------------|
D|----------------------------------------------|
A|----------------------------------------------|
D|00-0-00-000000-0-0-0---00-0-00-000000-0-0-0---|

(We had noghting strive for something)
G|----------------------------------------------|
D|----------------------------------------------|
A|----------------------------------------------|
D|33-3-33-333333-3-3-3---88-8-88-888888-8-8-8---| x2

(I wanna thank you for this chance to be angels)
!!??Bass might play, not sure though??!!

(Thank you for, for everything, we had nothing)
G|------------------------------------|
D|------------------------------------|
A|------------------------------------|
D|00000-----00000-----00000-----------|

(Strive for something)
G|------------------------------------|
D|------------------------------------|
A|------------------------------------|
D|8-8888-8-8888-8-8888-835------------|

(Don't lose sight of what matters the most)
G|------------------------------------|
D|------------------------------------|
A|------------------------------------|
D|00000-----00000-----00000-----------|

(I remember when we were young)
G|------------------------------------|
D|------------------------------------|
A|------------------------------------|
D|8-8888-8-8888-8-8888-835------------|

(I remember, remember when)
G|---------------------------------------|
D|---------------------------------------|
A|---------------------------------------|
D|00000-----00000---0-0-0-0--00000-------|

(We had nothing, strive for something)
G|---------------------------------------|
D|---------------------------------------|
A|---------------------------------------|
D|0-0-0-0-8-8888-8-8888-8-8888-835-------| 

(I want to...)
G|--------------|
D|--------------|
A|--------------|
D|0--0--0-------| 

(Know!)
G|-------------------------------|
D|-------------------------------|
A|-------------------------------|
D|000-00--000-00--000-00--000-00-|

(Like fire, like fire, come and drown with me like fire)
G|-------------------------------|
D|-------------------------------|
A|-------------------------------|
D|000-00--000-00--000-00--000-00-|

G|------|
D|------|
A|------|
D|--00--|

(come and light the fire, Yeah, come and light the, oh yeah, come and light ~hahaha~)
G|----------------------------|
D|----------------------------|
A|----------------------------|
D|-00-00--00-00--00-00--00-00-|

(come and light the fire, Yeah, come and light the, oh yeah, come and light the flames!)
G|-------------------------------------|
D|-------------------------------------|
A|-------------------------------------|
D|-00-00--00-00--00-00--00-00-000033330|


easy song really fun to play



            
            
Suggest correction
Creating personal tab
Creating personal tab
You can edit any tab online and save it as your Personal.

You can edit, replace or remove any tab part or add personal notes – all changes will be seen only by you.

Personal tabs can be accessed anytime from any device, even offline.
Learn more »
Give kudos to tab author, rate the tab!
1 2 3 4 5
comments
print report bad tab
guest
Wanna post a correction for this tab? Suggest correction