Oops, an error
Loading. Please wait.

Times Like These tab

version 1
version 1

Whole song

Interactive

10,269 views 1 this week
3 commentsread comments
1 2 3 4 5
x 5
add to favorites
×
Save as Personal and add changes to this tab that will be seen only by you. Learn more ›
×
You can save this tab as Personal to edit and correct it or add notes. All changes will be seen only by you. Learn more »
launch autoscroll
font size
0
reset
how to read this tab
guitar tuner
edit
Autoscroll
slow
fast
+/-
esc
set tempo
stop
Author
Blessthefall – Times Like These
Tabbed by: nova_marcel
Tuning: Dropped D

This is my first ever official tab I made. Comment on it if there is a mistake. Enjoy!

e|----------------------------------------------|---------------------|
B|----------------------------------------------|---------------------|
G|-----------------10p9p7-10p9p7-10p9p7-5-5-5h7-|--(play 8 times)-----|
D|0<--------------------------------------------|---------------------|
A|0<--------------0------0------0---------------|---------------------|
D|0<--------------0------0------0---------------|---------------------|
 (fade in)

e|--------------------------------------------------------------------|
B|--------------------------------------------------------------------|
G|--------5/77-7/9--9-9----------7/99-9/10-1010---------10-----10-----|
D|0000-0--x/xx-x/x--x-x--0000-0—-x/xx-x/x---x-x---------8-------8-----|
A|0000-0--3/55-5/7--7-7--0000-0—-5/77-7/8---8-8-----88888---88888-----|
D|0000-0-----------------0000-0---------------------88888---88888-----|
.... .               .... .                     ....    ....

e|--------------------------------------|-----------------------------|
B|--------------------------------------|-----------------------------|
G|---10---------------------------------|-(play 4 times)--------------|
D|----8--8h7h0--------------------------|-----------------------------|
A|88888-------10h8h7h0-10h0-8h0-7h0-3-5-|-----------------------------|
D|88888---------------------------------|-----------------------------|
  ....

e|--------------------------------------------------------------------|
B|--------------------------------------------------------------------|
G|--10p9h7-10p9p7-10p9p7-5-5-5h7----(play 8 times)--------------------|
D|--------------------------------------------------------------------|
A|0-------0------0------0---------------------------------------------|
D|0-------0------0------0---------------------------------------------|


e|---------------------------------------15^--------------------------|
B|--------------------------------------------------------------------|
G|---7-----10-9----5-----10-----9--5/7---------10----10/12—-12/14-----|
D|--------------------------------------------------------------------|
A|--------------------------------------------------------------------|
D|--------------------------------------------------------------------|
                                         +

e|--------------------------------------------------------------------|
B|------------------------------------------------11h0-10h0-8h0-6h8---|
G|--------------------------------------------------------------------|
D|-----0------0------0-8h7h0------------------------------------------|
A|0000-0-0000-0-0000-0------10h8h7h0-10h0-8h0-7h0---------------------|
D|0000-0-0000-0-0000-0------------------------------------------------|
....   ....   ....

e|--------------------------------------------------------------------|
B|6h8-----------------------------------------------------------------|
G|----9--10--9-10-12-10-9--5-7---(play 3 times)-----------------------|
D|--------------------------------------------------------------------|
A|--------------------------------------------------------------------|
D|--------------------------------------------------------------------|


e|----------|---------------------------------------------------------|
B|----------|---------------------------------------------------------|
G|----------|---------------------------------------------------------|
D|--0--0--0-|---8-5-7-5-----8-5-7-5-----8-5-7-5-----8-5-7-5-----------|
A|--0--0--0-|-55-------8--55-------8--55-------8--55-------8----------|
D|--0--0--0-|---------------------------------------------------------|
.  .  .                                                 
e|--------------------------------------------------------------------|
B|--------------------------------------------------------------------|
G|------------------------------------9^------------------------------|
D|---8-5-7-5-----8-5-7-5-----8-5-7-5-----8-5-7-5-----8-5-7-5----------|
A|-55-------8--55-------8--55-------8--55-------8--55-------8---------|
D|--------------------------------------------------------------------|
                                      +

e|--------------------------------------------------------------------|
B|--------------------------------------------------------------------|
G|------------------------------------------------------------------15|
D|---8-5-7-5--------0-------------------------------------------------|
A|-55-------8~~~~~~~0-----------00--00----00--00----00--00----00--00--|
D|------------------0-----------00--00----00--00----00--00----00--00--|
                    .           ..  ..    ..  ..    ..  ..    ..  ..+ 

e|--------------------------------------------------------------------|
B|--------------------------------------------------------------------|
G|--------------------------------------------------------~-----------|
D|-------------------------------------------------0------------------|
A|-00--00----00--00----00--00----00--00----00--00--0------------------|
D|-00--00----00--00----00--00----00--00----00--00--0------------------|
   ..  ..    ..  ..    ..  ..    ..  ..    ..  ..                          

            
            
Suggest correction
Creating personal tab
Creating personal tab
You can edit any tab online and save it as your Personal.

You can edit, replace or remove any tab part or add personal notes – all changes will be seen only by you.

Personal tabs can be accessed anytime from any device, even offline.
Learn more »
comments
print report bad tab
3 comments total.
0 reply
C.lakewolf 10 Oct 18, 2007 01:57 PM

Really good :D but there sounds like there is a note or 2 in this that is missing

e|----------|---------------------------------------------------------|
B|----------|---------------------------------------------------------|
G|----------|---------------------------------------------------------|
D|--0--0--0-|---8-5-7-5-----8-5-7-5-----8-5-7-5-----8-5-7-5-----------|
A|--0--0--0-|-55-------8--55-------8--55-------8--55-------8----------|
D|--0--0--0-|---------------------------------------------------------|
i can't place it myself o.o

0 reply
-guitarfreak- 10 Nov 09, 2007 10:25 AM

This tab sucks.

Thats all i have to say.

+1 reply
vash7 10 Feb 08, 2008 12:11 PM

great tab

guest
You may want to rate the tab now too:
select rating
Wanna post a correction for this tab? Suggest correction