Oops, an error
Loading. Please wait.

Tu Eres Mi Respirar Tab

10 views 1 this week
no commentswrite comment
1 2 3 4 5
3 more votes to show rating
add to favorites
launch autoscroll
font size
0
reset
how to read this tab
guitar tuner
Autoscroll
slow
fast
+/-
esc
set tempo
stop
Help us to improve Ultimate-Guitar.com Take our survey!
×
Author
Difficulty
About this tab version
I did this by ear and it follows the voices of the song, first tab I've made and seen of this song this way. Was this info helpful? Yes No
(/) Slide Up  (\) Slide Down 

[Verse] (Tu eres mi respirar)
e|-----1--3/6--6-----------------1--3/6--6------|
B|--3-------------4--4---3----3-------------4--4|
G|----------------------------------------------|
D|----------------------------------------------|
A|----------------------------------------------|
E|----------------------------------------------|

[Verse](Dios Tu presencia)
e|--6--8--5--5--6----------------|
B|-----------------9--11---------|
G|-----------------------7--10---|
D|-------------------------------|
A|-------------------------------|
E|-------------------------------|

[Chorus] (Y yo)
e|--5--6--8--6--5--6--8--8--6--5/6--6--3--1|
B|-----------------------------------------|
G|-----------------------------------------|
D|-----------------------------------------|
A|-----------------------------------------|
E|-----------------------------------------|
   

                                                                     http://www.guitartabcreator.com
Suggest correction
Give kudos to tab author, rate the tab!
1 2 3 4 5
comments
print report bad tab
guest
You may want to rate the tab now too:
select rating
Wanna post a correction for this tab? Suggest correction