Oops, an error
Loading. Please wait.

Youve Got Something There tab

166 views 9 this week
no commentswrite comment
1 2 3 4 5
3 more votes to show rating
add to favorites
×
Save as Personal and add changes to this tab that will be seen only by you. Learn more ›
×
You can save this tab as Personal to edit and correct it or add notes. All changes will be seen only by you. Learn more »
launch autoscroll
font size
0
reset
how to read this tab
guitar tuner
edit
Autoscroll
slow
fast
+/-
esc
set tempo
stop
(Note all bends are approx. quarter tones)


[Intro]

   C
e|-1-1-2-3-|---------------|-0---1-1/2--2/3-|---------------|
B|-3-3-4-5-|-1-1-1---------|-1---3-3/4--4/5-|-1-1-----------|
G|---------|---------------|----------------|-----3-3----3--|
D|---------|---2-----2-----|----------------|-----2------2--|
A|---------|-3----3--------|----------------|-3-------3-----|
E|---------|---------------|----------------|---------------|

   F                          C                          
e|-----------|-3-1-3---1---|------------|-3-----3---3-----|
B|---3-1-1---|-------------|-3b--3b-1---|-----1-----------|
G|-2---------|-------------|------------|---0-------------|
D|---3-----3-|---3-------3-|-----2----2-|-----2-------2---|
A|-----------|-------------|-3------3---|-3-------3-------|
E|-1---1-----|-1-----1-----|------------|---------------2-|

     G                                C7 F     C G
e|---3--1-3--|--0---------------|-----------|---3-3-3---|
B|-----------|--4b-1------------|-----------|-----------|
G|-----------|-------2-0--------|-----3-2-1-|-0---------|
D|---0-----0-|-----------3------|-----2-3-0-|-2-----0---|
A|-----------|-------------2----|--3--------|-3---------|
E|-3----3----|---------------3--|-----------|---3-----3-|
                                                      My... (verse1)

[Verse]

  C
e|-0-1-2-3-|---------------|-0---1---2---3-|---------------|
B|-1-3-4-5-|-1-1-1---------|-1-3-3-4-4 5-5-|-1-1-----------|
G|---------|---------------|---------------|-----3-3----3--|
D|---------|---2-----2-----|---------------|-----2------2--|
A|---------|-3----3--------|---------------|-3-------3-----|
E|---------|---------------|---------------|---------------|

   F                          C                          
e|-----------|-3-1-3---1---|------------|-3-----3---3-----|
B|---3-1-1---|-------------|-3b--3b-1---|-----1-----------|
G|-2---------|-------------|------------|---0-------------|
D|---3-----3-|---3-------3-|-----2----2-|-----2-------2---|
A|-----------|-------------|-3------3---|-3-------3-------|
E|-1---1-----|-1-----1-----|------------|---------------2-|

     G                            C     F       C
e|---3--1-3--|--0---------------|-------------|------8----|
B|-----------|--4b-1------------|-------1-1---|-/5--------|
G|-----------|-------2-0--------|--1--1-2-2---|----5------|
D|---0-----0-|-----------3------|--2--2-3-----|----5------|
A|-----------|-------------2----|--3----------|-----------|
E|-3----3----|---------------3--|-------------|-----------|
                                                      

[Verse 1]

   C
My gal went uptown 'cuz she lookin' well
C
She fell down mouth flew open like a country well


[Chorus]

    F
She got something there,
    C
She got something there,
    G                                                    C7 F   C  G  
Now I keep on telling you, I know she got something there

Play it a long time now


[Instrumental Break] 
 
  C
e|-0-1-2-3-|---------------|-0---1---2---3-|---------------|
B|-1-3-4-5-|-1-1-1---------|-1-3-3-4-4 5-5-|-1-1-----------|
G|---------|---------------|---------------|-----3-3----3--|
D|---------|---2-----2-----|---------------|-----2------2--|
A|---------|-3----3--------|---------------|-3-------3-----|
E|---------|---------------|---------------|---------------|

   F                          C                          
e|-----------|-3-1-3---1---|------------|-3-----3---3-----|
B|---3-1-1---|-------------|-3b--3b-1---|-----1-----------|
G|-2---------|-------------|------------|---0-------------|
D|---3-----3-|---3-------3-|-----2----2-|-----2-------2---|
A|-----------|-------------|-3------3---|-3-------3-------|
E|-1---1-----|-1-----1-----|------------|---------------2-|

     G                                C7 F      C  G
e|---3--1-3--|--0---------------|-------------|---3-3-----|
B|-----------|--4b-1------------|-------------|-----------|
G|-----------|-------2-0--------|-----3-2-1---|-0---------|
D|---0-----0-|-----------3------|-----2-3-0---|-2-----0---|
A|-----------|-------------2----|--3----------|-3---------|
E|-3----3----|---------------3--|-------------|---3-----3-|
                                                      

[Verse 2]

C
Now if you go out stay all night
C
Look here baby, goin'  fuss and fight


[Chorus]

    F
You got something there, yeah
    C
You got something there,
      G                                                 C7 F   C  G    
Now I keep on singing but I know you got something there

Yeah, Yeah

[Instrumental Break]


[Verse 3]

C
She's still just little and I say round
C
She can look good long as you can look down


[Chorus]

    F
She got something there, yeah
    C
She got something there
    G                                                            C7 F   C  G    
Now don't you hear me telling you, I know she got something there

Yeah she got something there


[Instrumental Break]

  C
e|-0-1-2-3-|---------------|-0---1---2---3-|---------------|
B|-1-3-4-5-|-1-1-1---------|-1-3-3-4-4 5-5-|-1-1-----------|
G|---------|---------------|---------------|-----3-3----3--|
D|---------|---2-----2-----|---------------|-----2------2--|
A|---------|-3----3--------|---------------|-3-------3-----|
E|---------|---------------|---------------|---------------|

   F                          C                          
e|-----------|-3-1-3---1---|------------|-3-----3---3-----|
B|---3-1-1---|-------------|-3b--3b-1---|-----1-----------|
G|-2---------|-------------|------------|---0-------------|
D|---3-----3-|---3-------3-|-----2----2-|-----2-------2---|
A|-----------|-------------|-3------3---|-3-------3-------|
E|-1---1-----|-1-----1-----|------------|---------------2-|

     G                                C7 F      C  G
e|---3--1-3--|--0---------------|-------------|---3-3-----|
B|-----------|--4b-1------------|-------------|-----------|
G|-----------|-------2-0--------|-----3-2-1---|-0---------|
D|---0-----0-|-----------3------|-----2-3-0---|-2-----0---|
A|-----------|-------------2----|--3----------|-3---------|
E|-3----3----|---------------3--|-------------|---3-----3-|
                                                      

[Verse 4]

C
Get out now boys let me shut the door
C
I got to truck just before I go


[Chorus]

    F
She got something there
    F
She got something there
      G                                                   C7 F   C  G   
Now I keep on telling you, I know she got something there


[Verse 5]

C
Wanna tell you boys just because you my pals
C
A mighty bad sign to advertise your gal


[Chorus]

    F
She got something there
    F
She got something there, yeah
    G                                                               C7 F   C  G   
Now don't you hear me singing 'bout, I know she got something there

Yeah she got something there


[Outro]

  C
e|-0-1-2-3-|---------------|-0---1---2---3-|---------------|
B|-1-3-4-5-|-1-1-1---------|-1-3-3-4-4 5-5-|-1-1-----------|
G|---------|---------------|---------------|-----3-3----3--|
D|---------|---2-----2-----|---------------|-----2------2--|
A|---------|-3----3--------|---------------|-3-------3-----|
E|---------|---------------|---------------|---------------|

   F                          C                          
e|-----------|-3-1-3---1---|------------|-3-----3---3-----|
B|---3-1-1---|-------------|-3b--3b-1---|-----1-----------|
G|-2---------|-------------|------------|---0-------------|
D|---3-----3-|---3-------3-|-----2----2-|-----2-------2---|
A|-----------|-------------|-3------3---|-3-------3-------|
E|-1---1-----|-1-----1-----|------------|---------------2-|

     G                                C7 F      C  G
e|---3--1-3--|--0---------------|-------------|---3-3-----|
B|-----------|--4b-1------------|-------------|-----------|
G|-----------|-------2-0--------|-----3-2-1---|-0---------|
D|---0-----0-|-----------3------|-----2-3-0---|-2-----0---|
A|-----------|-------------2----|--3----------|-3---------|
E|-3----3----|---------------3--|-------------|---3-----3-|


*************************************************************
/ slide up
b bend
*************************************************************         

            
            
Suggest correction
Creating personal tab
Creating personal tab
You can edit any tab online and save it as your Personal.

You can edit, replace or remove any tab part or add personal notes – all changes will be seen only by you.

Personal tabs can be accessed anytime from any device, even offline.
Learn more »
Give kudos to tab author, rate the tab!
1 2 3 4 5
comments
print report bad tab
guest
You may want to rate the tab now too:
select rating
Wanna post a correction for this tab? Suggest correction