Oops, an error
Loading. Please wait.

Cant Find My Way Home tab

version 1
version 1

Whole song

Interactive

137,168 views 198 this week
8 commentsread comments
1 2 3 4 5
x 35
add to favorites
×
Save as Personal and add changes to this tab that will be seen only by you. Learn more ›
×
You can save this tab as Personal to edit and correct it or add notes. All changes will be seen only by you. Learn more »
launch autoscroll
font size
0
reset
how to read this tab
guitar tuner
backing track
0:00
0:00
edit
Autoscroll
slow
fast
+/-
esc
set tempo
stop
Author
----------------------------------------------------------------

   BLIND FAITH --CAN'T FIND MY WAY HOME (S. Winwood) From BLIND
                 FAITH album. Released in August 1969. 69's # 1, 
                 Pop Album, both in US Billboard Chart and also 
                 in the UK.
 
----------------------------------------------------------------

   Tabbed by:PJVillanueva


   One album band, Blind Faith broke before the Press started
   messing too much with the fact that Eric Clapton and Ginger 
   Baker were together in another band, assuming that it might 
   be a Cream's sequel, which was not the case at all (Winwood 
   penned three of the six album's numbers, Clapton and Baker, 
   one each, plus a cover of Buddy Holly's "Well Allright",  
   also one of the album's strong tracks.

 

Come down off your throne
And leave your body alone
Somebody must change
You are the reason
I've been waiting so long
Somebody holds the key
Well, I'm near the end and just ain't got the time
Well, I'm wasted and I can't find my way home

Come down on your own
And leave your body alome
Somebody must change
You are the reason
I've been waiting all these years
Somebody holds the key
Well. I'm near the end and just ain't got the time
Oh, and I'm wasted and I can't find my way home

But I can't find my way home
But I can't find my way home
But I can't find my way home
But I can't find my way home
Still I can't find my way home
And I ain't done nothing wrong
But I can't find my way home


     Tune low E string to D


  [Intro]

  D7sus4                          D6sus4                                 
e|-------------------------------|-------------------------------|
B|--------3-----------3----------|--------3-----------3----------|
G|------------0---------------0--|------------0---------------0--|
D|------------------------0------|------------------------0------|
A|3------------------------------|2------------------------------|
D|-------------------------------|-------------------------------|
  
e|-------------------------------|----------------3-P-2----------|
B|----------------3--------------|------------------------3------|
G|----0-H-2----------------------|-------------------------------|
D|4------------------------------|-------------------------------|
A|-------------------------------|-------------------------------|
D|-------------------------------|-------------------------------|


  D+5sus4                         D5
e|-------------------------------|-------------------------------|
B|--------3-----------3----------|--------3-----------3----------|
G|------------0---------------0--|------------2-----------2---0--|
D|------------------------0------|-------------------------------|
A|1------------------------------|0------------------------------|
D|-------------------------------|-------------------------------|

e|-------------------------------|-------------------------------|
B|3---------------1--------------|-------------------------------|
G|--------------------3----------|2-------------------0---2------|
D|-------------------------------|----------------4--------------|
A|-------------------------------|-------------------------------|
D|-------------------------------|-------------------------------|


  F6                              G
e|--------1----------------------|-------------------------------|
B|------------1-------0----------|-------------------------------|
G|-------------------------------|0------------------------------|
D|------------------------0------|-------------------------------|
A|-------------------------------|----------------6-P-5---5-P-3--|
D|3------------------------------|5------------------------------|     

e|-------------------------------|-------------------------------|
B|1-P-0--------------------------|-------------------------------|
G|--------2----------------------|0------------------------------|
D|------------------------3------|----------------1-P-0----------|
A|-------------------------------|------------------------3------|
D|-------------------------------|-------------------------------|


  D
e|-------------------------------|-------------------------------|
B|--------3-----------3-------3--|------------3------------------|
G|------------2-----------2------|--------2-----------2----------|
D|0------------------------------|0------------------------------|
A|-------------------------------|------------------------0---2--|
D|-------------------------------|-------------------------------|

e|-------------------------------|-------------------------------|
B|-------------------------------|----------------------------3--|
G|-------------------------------|--------------------0---2------|
D|0-------------------0----------|0------------------------------|
A|------------0---3-------3------|-------------------------------|
D|-------------------------------|-------------------------------|


  00:11
e|-------------------------------|-------------------------------|
B|--------3-----------3----------|--------3-----------3----------|
G|------------0---------------0--|------------0---------------0--|
D|------------------------0------|------------------------0------|
A|3------------------------------|2------------------------------|
E|-------------------------------|-------------------------------|

e|--------2-----------3----------|3-------2----------------------|
B|-------------------------------|----------------3-H-5---3------|
G|-------------------------------|-------------------------------|
D|-------------------------------|-------------------------------|
A|-------------------------------|-------------------------------|
D|-------------------------------|-------------------------------|



e|-------------------------------|----------------2--------------|
B|--------3-----------3----------|----3---------------3----------|
G|------------0---------------0--|--------2---------------4---2--|
D|------------------------0------|------------0------------------|
A|1------------------------------|0------------------------------|
D|-------------------------------|-------------------------------|

e|--------3-P-2---3---5-------2--|----3-P 2----------------------|
B|-------------------------------|----------------5-P-3----------|
G|-------------------------------|------------------------2------|
D|-------------------------------|-------------------------------|
A|-------------------------------|-------------------------------|
D|-------------------------------|-------------------------------|



e|--------1---1-------3-P 1------|-------------------------------|
B|----------------------------3--|0-----------0---------------0--|
G|-------------------------------|----2-P-0-----------2-P-0------|
D|-------------------------------|------------------------0------|
A|-------------------------------|----------------0-H-2----------|
D|3------------------------------|5------------------------------|

e|-------------------------------|-------------------------------|
B|--------------------0---1---0--|-------------------------------|
G|2------------------------------|----2-P-0-------0-H-2----------|
D|-------------------------------|------------------------3-B-4--|
A|-------------------------------|-------------------------------|
D|-------------------------------|-------------------------------|



e|--------2-----------3----------|2-----------0------------------|
B|------------3-----------3------|----3---------------3----------|
G|----------------2-----------2--|--------2---------------2------|
D|0------------------------------|----------------0--------------|
A|-------------------------------|-------------------------------|
D|-------------------------------|-------------------------------|
                                                          Come
e|-------------------------------|-------------------------------|
B|-------------------------------|-------------------------------|
G|-------------------------------|-------------------------------|
D|0------------------------------|-------------------------------|
A|----------------3-P-0----------|-------------------------------|
D|------------------------3-P-0--|-------------------------------|


  00:22
e|-------------------------------|-------------------------------|
B|--------3-----------3----------|--------3-----------3----------|
G|------------0---------------0--|------------0---------------0--|
D|------------------------0------|------------------------0------|
A|3------------------------------|2------------------------------|
D|-------------------------------|-------------------------------|
  Down        of      your        throne                      and


e|-------------------------------|--------------------2----------|
B|--------3-----------3----------|--------3-------------------1--|
G|------------0---------------0--|------------2-----------2------|
D|------------------------0------|-------------------------------|
A|1------------------------------|0------------------------------|
D|-------------------------------|-------------------------------|
  Leave   your    body    alone


e|--------1-----------1----------|-------------------------------|
B|------------1-----------1---0--|------------0------------------|
G|-------------------------------|--------0-----------0----------|
D|-------------------------------|-------------------------------|
A|-------------------------------|-------------------------------|
D|3------------------------------|5------------------------------| 
                  Somebody                            must  


e|-------------------------------|-------------------------------|
B|3-------------------3----------|3-------------------3----------|
G|------------2------------------|------------2-----------2------|
D|--------0-------------------0--|--------0----------------------|
A|------------------------3------|------------------------0-H-2--|
D|0---------------0--------------|0---------------0--------------|
  change


  00:33
e|-------------------------------|-------------------------------|
B|--------3-----------3----------|--------3-----------3----------|
G|------------0---------------0--|------------0---------------0--|
D|------------------------0------|------------------------0------|
A|3------------------------------|2------------------------------|
D|-------------------------------|-------------------------------|
          You are         the reason              I've    been 


e|-------------------------------|-------------------------------|
B|--------3-----------3----------|3-------------------3----------|
G|------------0---------------0--|------------2---------------2--|        
D|------------------------0------|--------0---------------0------|
A|1------------------------------|-------------------------------|
D|-------------------------------|0---------------0--------------|
  waiting             so          long


e|-------------------------------|-------------------------------|
B|------------1-------0----------|------------0---------------0--|
G|----------------------------0--|--------------------0----------|
D|--------0---------------0------|--------0---------------0------|
A|-------------------------------|-------------------------------|
D|3---------------3--------------|5---------------5--------------|      
                  Somebody                        holds   the key


e|-------------------------------|--------------------2----------|
B|3-------------------3----------|3------------------------------|
G|------------2------------------|------------2------------------|
D|--------0-------------------0--|0-------0---------------0------|      
A|------------------------3------|-------------------------------|
D|0---------------0--------------|----------------0--------------|
                                                  Well,  
                                                      I'm

  00:44
  G
e|--------------------3----------|--------3----------------------|
B|3-----------3------------------|3-----------3-------3----------|
G|--------0----------------------|-------------------------------|
D|------------------------0------|--------0---------------0------|      
A|-------------------------------|-------------------------------|
D|5---------------5--------------|5----------------5-------------|
          near            the end                     and  


  A           Asus4               A           A6      A
e|-------------------------------|------------2-------0----------|
B|--------2-H-3-------3----------|2-----------2-------2----------|
G|--------2-----------2----------|2------------------------------|
D|--------2---------------2------|--------2---------------2------|
A|0---------------0--------------|0---------------0--------------|
D|-------------------------------|-------------------------------|
          just       ain't        got                     the time


          D               Dsus4       D           Dsus2   D                     
e|--------2---------------3------|----2-----------0--------------|
B|--------3---------------3------|----3-----------3-------3------|
G|--------2---------------2------|----2-----------2--------------|
D|0---------------0--------------|0------------------------------|
A|-------------------------------|-------------------------------|
D|-------------------------------|-------------------------------|
                                                  


  Em7                 Emadd4      Em7         Em6         Em          
e|--------3-----------5----------|3-----------2-----------0------|
B|------------0-----------0------|----0-------0-----------0------|
G|----------------0-----------0--|--------0---0-----------0------|
D|-------------------------------|-------------------------------|
A|-------------------------------|-------------------------------|
D|2------------------------------|2---------------2--------------|
          Well,               wasted                  and     I                  
              I'm   

  G                               F#8             E
e|------------------------3------|2-------2-------0-------0------|
B|--------------------3----------|-------------------------------|
G|------------0------------------|-------------------------------|
D|--------0----------------------|-------------------------------|
A|-------------------------------|-------------------------------|
D|5---------------5--------------|4-------4-------2-------2------|
          can't       find        my              way     home


  D                   Dsus2       D
e|--------------------0----------|-------------------------------|
B|3-----------3------------------|3------------------------------|
G|--------2----------------------|------------2-------0----------|
D|------------------------0------|--------0---------------4------|
A|-------------------------------|-------------------------------|
D|0---------------0--------------|0------------------------------|


  01:01
e|-------------------------------|-------------------------------|
B|--------------------0---1------|0------------------------------|
G|2------------------------------|--------------------2-P-0------|
D|-------------------------------|-------------------------------|
A|-------------------------------|-------------------------------|
D|-------------------------------|-------------------------------|


e|-------------------------------|-------------------------------|
B|3-------------------1----------|-------------------------------|
G|------------------------3------|2-------------------0---2------|
D|-------------------------------|----------------4--------------|
A|-------------------------------|-------------------------------|
D|-------------------------------|-------------------------------|


e|----------------5-P-3-------1--|3-----------1-------0----------|
B|3------------------------------|--------3----------------------|
G|-------------------------------|-------------------------------|  
D|-------------------------------|-------------------------------|
A|-------------------------------|-------------------------------|
D|-------------------------------|-------------------------------|


e|-------------------------------|-------------------------------|
B|----1--------------------------|-------------------------------|
G|----------------2--------------|-------------------------------|
D|------------------------3------|0------------------------------|
A|-------------------------------|-------------------------------|
D|-------------------------------|-------------------------------|



     01:12 
     Dooooooooodooooooooooohhhh

     01:22
     Come down on your own
     And leave your body alome
     Somebody must change
     You are the reason
     I've been waiting all these years
     Somebody holds the key
     Well. I'm near the end and just ain't got the time
     Oh, and I'm wasted and I can't find my way home



  01:58
e|--------------------0----------|2-----------3-------5----------|
B|------------3------------------|-------------------------------|
G|--------2----------------------|-------------------------------|
D|-------------------------------|-------------------------------|
A|-------------------------------|-------------------------------|
D|0------------------------------|-------------------------------|

  02:01
e|8------------------------------|7-P-5-\ 3----------------------|
B|-------------------------------|--------------------3----------|
G|-------------------------------|-------------------------------|
D|-------------------------------|-------------------------------|
A|-------------------------------|-------------------------------|
D|-------------------------------|-------------------------------|


e|-------------------------------|-------------------------------|
B|6-------------------5-P-3------|-------------------------------|
G|-------------------------------|2---------------2-P-0----------|
D|-------------------------------|------------------------4------|
A|-------------------------------|-------------------------------|
D|-------------------------------|-------------------------------|


e|-------------------------------|-------------------------------|
B|-------------------------------|-------------------------------|
G|2------------------------------|0------------------------------|
D|--------------------5-H-3------|----------------3-P-2-P-0------|
A|-------------------------------|----------------------------3--|
D|-------------------------------|-------------------------------|


e|-------------------------------|-------------------------------|
B|-------------------------------|-------------------------------|
G|-------------------------------|-------------------------------|
D|0------------------------------|-------------------------------|
A|-------------------------------|-------------------------------|
D|-------------------------------|-------------------------------|

  02:12
  Dooooooooodooooooooooohhhh
 
  02:16
  But I can't find my way home
  But I can't find my way home
  But I can't find my way home
  But I can't find my way home
  Still I can't find my way home
  And I ain't done nothing wrong
  But I can't find my way home


                                         (.
  03:08
  D                       D6      D
e|-------------------------------|-------------------------------|
B|--------3----------------------|-------------------------------|
G|------------2------------------|-------------------------------|
D|--------------------0----------|0------------------------------|
A|------------------------2------|-------------------------------|
D|0------------------------------|--------0----------------------|


**************************************************************

        B  Bend
        R  Release
        /  Slide up
        \  Slide down
        H  Hammer-on
        P  Pull-off
        ~  Vibrato
        +  Harmonic
        x  Mute note
        .  Play note like a dot in standard notation
        ^  Ties two notes together
        (. Pause


****************************************************************


            
            
Suggest correction
Creating personal tab
Creating personal tab
You can edit any tab online and save it as your Personal.

You can edit, replace or remove any tab part or add personal notes – all changes will be seen only by you.

Personal tabs can be accessed anytime from any device, even offline.
Learn more »
comments
print report bad tab
8 comments total. Showing first comments.
-2 reply
Billyjson 40 Oct 17, 2008 05:43 AM

Has the basic gist. Too much missing to be rated 5, but combined with youtube it's helpful.

+1 reply
PJVILL 8,472 Oct 17, 2008 09:49 AM

So too much missing? Well, maybe it lacks a little Stevie Winwood hanging up there for some decoration, because basically they're just two acoustic guitars and they're both up there. I think I'd never have rated it, good or bad. Thanks for your stars, though you've lightened my score 1 more point. They seem to vanish too easily to be worth the strife. I better try to avoid this as much as I can. I don talk too much, I just give the things my soul. I love all those old songs.

-2 reply
PJVILL 8,472 Oct 17, 2008 09:55 AM

I forgot to say that before your rating it had 5 stars, which look much better than the 4 it will have now and forever. Thanks again.

guest
You may want to rate the tab now too:
select rating
Wanna post a correction for this tab? Suggest correction