Oops, an error
Loading. Please wait.

Had To Cry Today bass

version 1
version 1

Whole song

Interactive

277 views 12 this week
no commentswrite comment
1 2 3 4 5
1 last vote to show rating
add to favorites
×
Save as Personal and add changes to this tab that will be seen only by you. Learn more ›
×
You can save this tab as Personal to edit and correct it or add notes. All changes will be seen only by you. Learn more »
launch autoscroll
font size
0
reset
guitar tuner
edit
Autoscroll
slow
fast
+/-
esc
set tempo
stop
Author
Difficulty
Intro/Main Riff
G|------------3-------------------|--------------------------------|
D|3---5---5-------5---3---0-------|------------0-------------------|
A|--------------------------------|1---3---3-------3---1-----------|
E|--------------------------------|------------------------3-------|

G|--------------------------------|--------------------------------|
D|--------------------------------|--------------------------------|
A|1-------------------------------|1-------3-------1---------------|
E|----------------3---------------|--------------------------------| x4
 

Verse
G|5-----------5---3---5-------5---|5---0---5-------------------0---|
D|--------------------------------|------------2-------3---4-------|
A|--------------------------------|--------------------------------|
E|--------------------------------|--------------------------------|


G|5-----------5---3---5-------5---|5---0---5-------------------0---|
D|--------------------------------|------------2-------3---4-------|
A|--------------------------------|--------------------------------|
E|--------------------------------|--------------------------------|

 
G|------------3-------------------|--------------------------------|
D|3---5---5-------5---3---0-------|------------0-------------------|
A|--------------------------------|1---3---3-------3---1-----------|
E|--------------------------------|------------------------3-------|

 
G|--------------------------------|--------------------------------|
D|--------------------------------|--------------------------------|
A|1-------------------------------|1-------3-------1---------------|
E|----------------3---------------|----------------------------3---|


G|5-----------5---3---5-------5---|5---0---5-------------------0---|
D|--------------------------------|------------2-------3---4-------|
A|--------------------------------|--------------------------------|
E|--------------------------------|--------------------------------|

 
G|5-----------5---3---5-------5---|--------5-----------------------|
D|--------------------------------|----2-------2-----------3-------|
A|--------------------------------|--------------------------------|
E|--------------------------------|--------------------------------|

 
G|------------3-------------------|--------------------------------|
D|3---5---5-------5---3---0-------|------------0-------------------|
A|--------------------------------|1---3---3-------3---1-----------|
E|--------------------------------|------------------------3-------|


G|--------------------------------|--------------------------------|
D|--------------------------------|--------------------------------|
A|1-------------------------------|1---2---------------------------|
E|----------------3---------------|--------------------------------|


Chorus (Had to cry today...)
G|--------------------------------|--------------------------------|
D|----------------9-----------9---|----------------8-----------8---|
A|7-----------7-------------------|7-----------7-------------------|
E|--------------------------------|--------------------------------|

G|--------------------------------|6-------------------------------|
D|----------------7---------------|--------------------1-----------|
A|7-----------7-------------------|----------------3---------------|
E|--------------------------------|------------0-------------------|


G|--------------------------------|--------------------------------|
D|2-----------4-------4-----------|--------------------------------|
A|------------------------2-------|3---------------3-------0-------|
E|--------------------------------|--------3-----------------------|

 
G|--------------------------------|----------------4-----------4---|
D|--------------------------------|2-----------2-------------------|
A|--------------------------------|--------------------------------|
E|--------------------------------|--------------------------------|

 
G|----------------3-----------3---|----------------2-------2-------|
D|2-----------2-------------------|2-----------2-------------------|
A|--------------------------------|--------------------------------|
E|--------------------------------|--------------------------------|

 
G|--------------------------------|--------------------------------|
D|----------------1---1-------1---|2-----------2---4---4-------4---|
A|4-----------4-------------------|--------------------------------|
E|--------------------------------|--------------------------------|


G|1---1-----------3---3-------3---|4---6-------6-------------------|
D|--------------------------------|----------------6-------6-------|
A|--------------------------------|--------------------------------|
E|--------------------------------|--------------------------------|


G|--------------------------------|--------------------------------|
D|----------------0---0-------0---|2-----------2---3-----------3---|
A|3-----------3-------------------|--------------------------------|
E|--------------------------------|--------------------------------|


G|0-----------0---2-----------2---|3---1---------------------------|
D|--------------------------------|--------------------------------|
A|--------------------------------|--------1-----------------------|
E|--------------------------------|--------------------------------|


G|------------3-------------------|--------------------------------|
D|3---5---5-------5---3---0-------|------------0-------------------|
A|--------------------------------|1---3---3-------3---1-----------|
E|--------------------------------|------------------------3-------|

G|--------------------------------|--------------------------------|
D|--------------------------------|--------------------------------|
A|1-------------------------------|1-------3-------1---------------|
E|----------------3---------------|--------------------------------|

G|------------3-------------------|--------------------------------|
D|3---5---5-------5---3---0-------|------------0-------------------|
A|--------------------------------|1---3---3-------3---1-----------|
E|--------------------------------|------------------------3-------|

G|--------------------------------|--------------------------------|
D|--------------------------------|--------------------------------|
A|1-------------------------------|1-------3-------1---------------|
E|----------------3---------------|--------------------------------|


Verse
G|5-----------5---3---5-------5---|5---0---5-------------------0---|
D|--------------------------------|------------2-------3---4-------|
A|--------------------------------|--------------------------------|
E|--------------------------------|--------------------------------|


G|5-----------5---3---5-------5---|5---0---5-------------------0---|
D|--------------------------------|------------2-------3---4-------|
A|--------------------------------|--------------------------------|
E|--------------------------------|--------------------------------|

 
G|------------3-------------------|--------------------------------|
D|3---5---5-------5---3---0-------|------------0-------------------|
A|--------------------------------|1---3---3-------3---1-----------|
E|--------------------------------|------------------------3-------|

 
G|--------------------------------|--------------------------------|
D|--------------------------------|--------------------------------|
A|1-------------------------------|1-------3-------1---------------|
E|----------------3---------------|----------------------------3---|


G|5-----------5---3---5-------5---|5---0---5-------------------0---|
D|--------------------------------|------------2-------3---4-------|
A|--------------------------------|--------------------------------|
E|--------------------------------|--------------------------------|

 
G|5-----------5---3---5-------5---|--------5-----------------------|
D|--------------------------------|----2-------2-----------3-------|
A|--------------------------------|--------------------------------|
E|--------------------------------|--------------------------------|

 
G|------------3-------------------|--------------------------------|
D|3---5---5-------5---3---0-------|------------0-------------------|
A|--------------------------------|1---3---3-------3---1-----------|
E|--------------------------------|------------------------3-------|


G|--------------------------------|--------------------------------|
D|--------------------------------|--------------------------------|
A|1-------------------------------|1---2---------------------------|
E|----------------3---------------|--------------------------------|


Chorus
G|--------------------------------|--------------------------------|
D|----------------9-----------9---|----------------8-----------8---|
A|7-----------7-------------------|7-----------7-------------------|
E|--------------------------------|--------------------------------|

G|--------------------------------|6-------------------------------|
D|----------------7---------------|--------------------1-----------|
A|7-----------7-------------------|----------------3---------------|
E|--------------------------------|------------0-------------------|


G|--------------------------------|--------------------------------|
D|2-----------4-------4-----------|--------------------------------|
A|------------------------2-------|3---------------3-------0-------|
E|--------------------------------|--------3-----------------------|

 
G|--------------------------------|----------------4-----------4---|
D|--------------------------------|2-----------2-------------------|
A|--------------------------------|--------------------------------|
E|--------------------------------|--------------------------------|

 
G|----------------3-----------3---|----------------2-------2-------|
D|2-----------2-------------------|2-----------2-------------------|
A|--------------------------------|--------------------------------|
E|--------------------------------|--------------------------------|

 
G|--------------------------------|--------------------------------|
D|----------------1---1-------1---|2-----------2---4---4-------4---|
A|4-----------4-------------------|--------------------------------|
E|--------------------------------|--------------------------------|


G|1---1-----------3---3-------3---|4---6-------6-------------------|
D|--------------------------------|----------------6-------6-------|
A|--------------------------------|--------------------------------|
E|--------------------------------|--------------------------------|


G|--------------------------------|--------------------------------|
D|----------------0---0-------0---|2-----------2---3-----------3---|
A|3-----------3-------------------|--------------------------------|
E|--------------------------------|--------------------------------|


G|0-----------0---2-----------2---|3---1---------------------------|
D|--------------------------------|--------------------------------|
A|--------------------------------|--------1-----------------------|
E|--------------------------------|--------------------------------|


G|------------3-------------------|--------------------------------|
D|3---5---5-------5---3---0-------|------------0-------------------|
A|--------------------------------|1---3---3-------3---1-----------|
E|--------------------------------|------------------------3-------|

G|--------------------------------|--------------------------------|
D|--------------------------------|--------------------------------|
A|1-------------------------------|1-------3-------1---------------|
E|----------------3---------------|--------------------------------|

G|------------3-------------------|--------------------------------|
D|3---5---5-------5---3---0-------|------------0-------------------|
A|--------------------------------|1---3---3-------3---1-----------|
E|--------------------------------|------------------------3-------|

G|--------------------------------|--------------------------------|
D|--------------------------------|--------------------------------|
A|1-------------------------------|1-------3-------1---------------|
E|----------------3---------------|--------------------------------|


Main Riff
G|------------3-------------------|--------------------------------|
D|3---5---5-------5---3---0-------|------------0-------------------|
A|--------------------------------|1---3---3-------3---1-----------|
E|--------------------------------|------------------------3-------|

G|--------------------------------|--------------------------------|
D|--------------------------------|--------------------------------|
A|1-------------------------------|1-------3-------1---------------|
E|----------------3---------------|--------------------------------| x16


Verse
G|5-----------5---3---5-------5---|5---0---5-------------------0---|
D|--------------------------------|------------2-------3---4-------|
A|--------------------------------|--------------------------------|
E|--------------------------------|--------------------------------|


G|5-----------5---3---5-------5---|5---0---5-------------------0---|
D|--------------------------------|------------2-------3---4-------|
A|--------------------------------|--------------------------------|
E|--------------------------------|--------------------------------|

 
G|------------3-------------------|--------------------------------|
D|3---5---5-------5---3---0-------|------------0-------------------|
A|--------------------------------|1---3---3-------3---1-----------|
E|--------------------------------|------------------------3-------|

 
G|--------------------------------|--------------------------------|
D|--------------------------------|--------------------------------|
A|1-------------------------------|1-------3-------1---------------|
E|----------------3---------------|----------------------------3---|


G|5-----------5---3---5-------5---|5---0---5-------------------0---|
D|--------------------------------|------------2-------3---4-------|
A|--------------------------------|--------------------------------|
E|--------------------------------|--------------------------------|

 
G|5-----------5---3---5-------5---|--------5-----------------------|
D|--------------------------------|----2-------2-----------3-------|
A|--------------------------------|--------------------------------|
E|--------------------------------|--------------------------------|

 
G|------------3-------------------|--------------------------------|
D|3---5---5-------5---3---0-------|------------0-------------------|
A|--------------------------------|1---3---3-------3---1-----------|
E|--------------------------------|------------------------3-------|


G|--------------------------------|--------------------------------|
D|--------------------------------|--------------------------------|
A|1-------------------------------|1---2---------------------------|
E|----------------3---------------|--------------------------------|


Chorus
G|--------------------------------|--------------------------------|
D|----------------9-----------9---|----------------8-----------8---|
A|7-----------7-------------------|7-----------7-------------------|
E|--------------------------------|--------------------------------|

G|--------------------------------|6-------------------------------|
D|----------------7---------------|--------------------1-----------|
A|7-----------7-------------------|----------------3---------------|
E|--------------------------------|------------0-------------------|


G|--------------------------------|--------------------------------|
D|2-----------4-------4-----------|--------------------------------|
A|------------------------2-------|3---------------3-------0-------|
E|--------------------------------|--------3-----------------------|

 
G|--------------------------------|----------------4-----------4---|
D|--------------------------------|2-----------2-------------------|
A|--------------------------------|--------------------------------|
E|--------------------------------|--------------------------------|

 
G|----------------3-----------3---|----------------2-------2-------|
D|2-----------2-------------------|2-----------2-------------------|
A|--------------------------------|--------------------------------|
E|--------------------------------|--------------------------------|

 
G|--------------------------------|--------------------------------|
D|----------------1---1-------1---|2-----------2---4---4-------4---|
A|4-----------4-------------------|--------------------------------|
E|--------------------------------|--------------------------------|


G|1---1-----------3---3-------3---|4---6-------6-------------------|
D|--------------------------------|----------------6-------6-------|
A|--------------------------------|--------------------------------|
E|--------------------------------|--------------------------------|


G|--------------------------------|--------------------------------|
D|----------------0---0-------0---|2-----------2---3-----------3---|
A|3-----------3-------------------|--------------------------------|
E|--------------------------------|--------------------------------|


G|0-----------0---2-----------2---|3---1---------------------------|
D|--------------------------------|--------------------------------|
A|--------------------------------|--------1-----------------------|
E|--------------------------------|--------------------------------|


G|------------3-------------------|--------------------------------|
D|3---5---5-------5---3---0-------|------------0-------------------|
A|--------------------------------|1---3---3-------3---1-----------|
E|--------------------------------|------------------------3-------|

G|--------------------------------|--------------------------------|
D|--------------------------------|--------------------------------|
A|1-------------------------------|1-------3-------1---------------|
E|----------------3---------------|--------------------------------|

G|------------3-------------------|--------------------------------|
D|3---5---5-------5---3---0-------|------------0-------------------|
A|--------------------------------|1---3---3-------3---1-----------|
E|--------------------------------|------------------------3-------|

G|--------------------------------|--------------------------------|
D|--------------------------------|--------------------------------|
A|1-------------------------------|1-------3-------1---------------|
E|----------------3---------------|--------------------------------|


Verse
G|5-----------5---3---5-------5---|5---0---5-------------------0---|
D|--------------------------------|------------2-------3---4-------|
A|--------------------------------|--------------------------------|
E|--------------------------------|--------------------------------|


G|5-----------5---3---5-------5---|5---0---5-------------------0---|
D|--------------------------------|------------2-------3---4-------|
A|--------------------------------|--------------------------------|
E|--------------------------------|--------------------------------|

 
G|------------3-------------------|--------------------------------|
D|3---5---5-------5---3---0-------|------------0-------------------|
A|--------------------------------|1---3---3-------3---1-----------|
E|--------------------------------|------------------------3-------|

 
G|--------------------------------|--------------------------------|
D|--------------------------------|--------------------------------|
A|1-------------------------------|1-------3-------1---------------|
E|----------------3---------------|----------------------------3---|


G|5-----------5---3---5-------5---|5---0---5-------------------0---|
D|--------------------------------|------------2-------3---4-------|
A|--------------------------------|--------------------------------|
E|--------------------------------|--------------------------------|

 
G|5-----------5---3---5-------5---|--------5-----------------------|
D|--------------------------------|----2-------2-----------3-------|
A|--------------------------------|--------------------------------|
E|--------------------------------|--------------------------------|

 
G|------------3-------------------|--------------------------------|
D|3---5---5-------5---3---0-------|------------0-------------------|
A|--------------------------------|1---3---3-------3---1-----------|
E|--------------------------------|------------------------3-------|


G|--------------------------------|--------------------------------|
D|--------------------------------|--------------------------------|
A|1-------------------------------|1---2---------------------------|
E|----------------3---------------|--------------------------------|


Chorus
G|--------------------------------|--------------------------------|
D|----------------9-----------9---|----------------8-----------8---|
A|7-----------7-------------------|7-----------7-------------------|
E|--------------------------------|--------------------------------|

G|--------------------------------|6-------------------------------|
D|----------------7---------------|--------------------1-----------|
A|7-----------7-------------------|----------------3---------------|
E|--------------------------------|------------0-------------------|


G|--------------------------------|--------------------------------|
D|2-----------4-------4-----------|--------------------------------|
A|------------------------2-------|3---------------3-------0-------|
E|--------------------------------|--------3-----------------------|

 
G|--------------------------------|----------------4-----------4---|
D|--------------------------------|2-----------2-------------------|
A|--------------------------------|--------------------------------|
E|--------------------------------|--------------------------------|

 
G|----------------3-----------3---|----------------2-------2-------|
D|2-----------2-------------------|2-----------2-------------------|
A|--------------------------------|--------------------------------|
E|--------------------------------|--------------------------------|

 
G|--------------------------------|--------------------------------|
D|----------------1---1-------1---|2-----------2---4---4-------4---|
A|4-----------4-------------------|--------------------------------|
E|--------------------------------|--------------------------------|


G|1---1-----------3---3-------3---|4---6-------6-------------------|
D|--------------------------------|----------------6-------6-------|
A|--------------------------------|--------------------------------|
E|--------------------------------|--------------------------------|

G|--------------------------------|----------------4-----------4---|
D|--------------------------------|2-----------2-------------------|
A|--------------------------------|--------------------------------|
E|--------------------------------|--------------------------------|

 
G|----------------3-----------3---|----------------2-------2-------|
D|2-----------2-------------------|2-----------2-------------------|
A|--------------------------------|--------------------------------|
E|--------------------------------|--------------------------------|

 
G|--------------------------------|--------------------------------|
D|----------------1---1-------1---|2-----------2---4---4-------4---|
A|4-----------4-------------------|--------------------------------|
E|--------------------------------|--------------------------------|


G|1---1-----------3---3-------3---|4---6-------6-------------------|
D|--------------------------------|----------------6-------6-------|
A|--------------------------------|--------------------------------|
E|--------------------------------|--------------------------------|


G|--------------------------------|----------------4-----------4---|
D|--------------------------------|2-----------2-------------------|
A|--------------------------------|--------------------------------|
E|--------------------------------|--------------------------------|

 
G|----------------3-----------3---|----------------2-------2-------|
D|2-----------2-------------------|2-----------2-------------------|
A|--------------------------------|--------------------------------|
E|--------------------------------|--------------------------------|

 
G|--------------------------------|--------------------------------|
D|----------------1---1-------1---|2-----------2---4---4-------4---|
A|4-----------4-------------------|--------------------------------|
E|--------------------------------|--------------------------------|


G|1---1-----------3---3-------3---|4---6-------6-------------------|
D|--------------------------------|----------------6-------6-------|
A|--------------------------------|--------------------------------|
E|--------------------------------|--------------------------------|


G|--------------------------------|----------------4-----------4---|
D|--------------------------------|2-----------2-------------------|
A|--------------------------------|--------------------------------|
E|--------------------------------|--------------------------------|

 
G|----------------3-----------3---|----------------2-------2-------|
D|2-----------2-------------------|2-----------2-------------------|
A|--------------------------------|--------------------------------|
E|--------------------------------|--------------------------------|

 
G|--------------------------------|--------------------------------|
D|----------------1---1-------1---|2-----------2---4---4-------4---|
A|4-----------4-------------------|--------------------------------|
E|--------------------------------|--------------------------------|


G|1---1-----------3---3-------3---|4---6-------6-------------------|
D|--------------------------------|----------------6-------6-------|
A|--------------------------------|--------------------------------|
E|--------------------------------|--------------------------------|


G|--------------------------------|----------------4-----------4---|
D|--------------------------------|2-----------2-------------------|
A|--------------------------------|--------------------------------|
E|--------------------------------|--------------------------------|

 
G|----------------3-----------3---|----------------2-------2-------|
D|2-----------2-------------------|2-----------2-------------------|
A|--------------------------------|--------------------------------|
E|--------------------------------|--------------------------------|

 
G|--------------------------------|--------------------------------|
D|----------------1---1-------1---|2-----------2---4---4-------4---|
A|4-----------4-------------------|--------------------------------|
E|--------------------------------|--------------------------------|


G|1---1-----------3---3-------3---|4---6-------6-------------------|
D|--------------------------------|----------------6-------6-------|
A|--------------------------------|--------------------------------|
E|--------------------------------|--------------------------------|


G|--------------------------------|--------------------------------|
D|----------------0---0-------0---|2-----------2---3-----------3---|
A|3-----------3-------------------|--------------------------------|
E|--------------------------------|--------------------------------|


G|0-----------0---2-----------2---|3---1---------------------------|
D|--------------------------------|--------------------------------|
A|--------------------------------|--------1-----------------------|
E|--------------------------------|--------------------------------|


G|------------3-------------------|--------------------------------|
D|3---5---5-------5---3---0-------|------------0-------------------|
A|--------------------------------|1---3---3-------3---1-----------|
E|--------------------------------|------------------------3-------|

G|--------------------------------|--------------------------------|
D|--------------------------------|--------------------------------|
A|1-------------------------------|1-------3-------1---------------|
E|----------------3---------------|--------------------------------|

G|------------3-------------------|--------------------------------|
D|3---5---5-------5---3---0-------|------------0-------------------|
A|--------------------------------|1---3---3-------3---1-----------|
E|--------------------------------|------------------------3-------|

G|--------------------------------|--------------------------------|
D|--------------------------------|--------------------------------|
A|1-------------------------------|1-------3-------1---------------|
E|----------------3---------------|--------------------------------|


Main Riff/Outro
G|------------3-------------------|--------------------------------|
D|3---5---5-------5---3---0-------|------------0-------------------|
A|--------------------------------|1---3---3-------3---1-----------|
E|--------------------------------|------------------------3-------|

G|--------------------------------|--------------------------------|
D|--------------------------------|--------------------------------|
A|1-------------------------------|1-------3-------1---------------|
E|----------------3---------------|--------------------------------|...until end






#############
/  slide up
\  slide down
h  hammer on
p  pull off


            
            
Suggest correction
Creating personal tab
Creating personal tab
You can edit any tab online and save it as your Personal.

You can edit, replace or remove any tab part or add personal notes – all changes will be seen only by you.

Personal tabs can be accessed anytime from any device, even offline.
Learn more »
Give kudos to tab author, rate the tab!
1 2 3 4 5
comments
print report bad tab
guest
You may want to rate the tab now too:
select rating
Wanna post a correction for this tab? Suggest correction