Oops, an error
Loading. Please wait.

A Past And Future Secret Chords

version 2
version 2

Whole song

Interactive

4,922 views 9 this week
1 commentread comment
1 2 3 4 5
excellent!
x 5
add to favorites
launch autoscroll
font size
0
reset
transpose
0
reset
display chords
guitar tuner
Autoscroll
slow
fast
+/-
esc
set tempo
stop
Help us to improve Ultimate-Guitar.com Take our survey!
×
Contributor
Difficulty
intermediate
 
E|-2---9-10-9----7----9------------7-------2--4-5-4----2-----------------|  
B|-2-------------------------10------------2----------------5----2-2-----|  
G|-2---------------------------------------2-----------------------------|  
D|-4---------------------------------------4-----------------------------|  
A|-4---------------------------------------4-----------------------------|  
E|-2---------------------------------------2-----------------------------|  
  
F#m           E               F#m 
Oh, I haven't been here for a while  
F#m          E                           D   Bm  E  
in blindness and decay the circle's been closed, now  
  
D  Bm          E  
My song of the end  
D  Bm          E  
My song of the end I've seen it all  
  
F#m               E        F#m 
Listen crowd I'll tell you everything  
F#m                    E          F#m  
though I have to say I don't know much  
F#m                      E      F#m
talking about a past and future secret  
F#m                      E      F#m 
most called him once and future king  
F#m                    E       F#m  
far back in the past I saw his ending  
F#m                      E        F#m  
long before it started I knew his name  
F#m                        E        F#m  
he's the one who took the sword out of the stone  
F#m           E       C#m  D  Bm  E
it's how that ancient tale began (I hear it in the cold winds)
  
D  Bm          E  
My song of the end  
D  Bm          E  
My song of the end (I had seen it in my dreams)
D  Bm          E  
My song of the end (I can't stop the darkening clouds)
  
F#m    E                           F#m 
I feel cold when I cry out for the bark (take him back to Avalon)
      F#m      E          D                  F#m
dwell on for a new age so long sleep well my friend (take him back to Avalon) 
       F#m      E         C#m           D     Bm  E
I will wait and guard the future king's crown  

D  Bm          E   
My song of the end 
D  Bm          E   
My song of the end 

D  Bm          E   
My song of the end 
D  Bm          E  
My song of the end (it was nice but now it's gone)

D  Bm          E  
My song of the end (it was fixed the whole time)  
D  Bm          E  
My song of the end (I've seen it all)
comments
print report bad tab
1 comment total.
0 reply
Revlin 763 wrote on July 15 2014, 10:36 pm

Really good work here! I only have two small corrections in the main riff to suggest:

E|-9---9-10-9----7----9------------7-------2--4-5-4----2-----------2-----|
B|-10------------------------10------------2----------------5----2-------|
G|-11--------------------------------------2-----------------------------|
D|-11--------------------------------------4-----------------------------|
A|-9---------------------------------------4-----------------------------|
E|-----------------------------------------2-----------------------------|

I want to post or [tab]
guest
You may want to rate the tab now too:
select rating
Please do not post tabs as comments. Select "correction" instead!