Oops, an error
Loading. Please wait.

Battlefield Tab

version 1
version 1

Whole song

Interactive

5,823 views 12 this week
no commentswrite comment
1 2 3 4 5
worth learning
x 3
add to favorites
launch autoscroll
font size
0
reset
how to read this tab
guitar tuner
Autoscroll
slow
fast
+/-
esc
set tempo
stop
Help us to improve Ultimate-Guitar.com Take our survey!
×
Author
Difficulty
intermediate
Intro (x2)

Eb|--7--6h7p6-4-6--|--7--6h7p6-4--2-|--7--6h7p6--4-6--4------4---|
Bd|-------------7--|----------------|--------------0--0--7---0---|
Gb|*-4-------------|--4-------------|--4-------------------------|
Db|*---------------|----------------|----------------------------|
Ab|----------------|----------------|----------------------------|
Eb|----------------|----------------|----------------------------|

Eb|----------|----|-------------|----------|----------|-------------|
Bd|----------|----|-------------|----------|----------|-------------|
Gb|-4---3--4-|-4--|-4--4--3--3--|-4--4--4--|-4--3--3--|-4--4--3--1--|
Db|-6---4--6-|-6--|-4--4--4--4--|-6--4--4--|-6--4--4--|-6--4--4--2--|
Ab|-6---4--6-|-6--|-2--2--4--4--|-6--2--2--|-6--4--4--|-6--2--4--2--|
Eb|-4---2--4-|-4--|-2--2--2--2--|-4--2--2--|-4--2--2--|-4--2--2--0--|


Eb|----------------------------------|----------------------------------|
Bd|----------------------------------|----------------------------------|
Gb|*---------------------------------|---------------------------------*|
Db|*---------------------------------|---------------------------------*|
Ab|-6--------------------------------|-4--------------------------------|
Eb|-4-4-4-4-4-4-4-4-4-4-4-4-4-4-4-4--|-2-2-2-2-2-2-2-2-2-2-2-2-2-2-2-2--|

Eb|---------------------------------|---------------------------|
Bd|---------------------------------|-4h5-7-4h5p4---4-----------|
Gb|---------------------------------|-------------6---6--4--3---|
Db|---------------------------------|---------------------------|
Ab|-6-------------------------------|---------------------------|
Eb|-4-4-4-4-4-4-4-4-4-4-4-4-4-4-4-4-|---------------------------|

 Repeat the one with starts one more time and then

Eb|-----------|
Bd|-----------|
Gb|-----------|*
Db|-----------|*
Ab|--4--5--7--|
Eb|--2--3--5--|

Solo

Eb|-15-14h15p14---12-14~-|----------------------|-------------------------|
Bd|----------------------|-15-14h15p14--12--10~-|-15-14h15p14-12-14-12-10-|
Gb|----------------------|----------------------|-------------------------|
Db|----------------------|----------------------|-------------------------|
Ab|----------------------|----------------------|-------------------------|
Eb|----------------------|----------------------|-------------------------|

Eb|----------------12-14-15-14-12-14--||
Bd|-------12-14-15--------------------||
Gb|-9---------------------------------||
Db|-----------------------------------||
Ab|-----------------------------------||
Eb|-----------------------------------||

Eb|--------------------------|-17b--17-15--17-15-14--|
Bd|--17b--17--15---17-15-14--|-----------------------|
Gb|--------------------------|-----------------------|
Db|--------------------------|-----------------------|  x2
Ab|--------------------------|-----------------------|
Eb|--------------------------|-----------------------|

This isn’t my work, just found it on the internet and re uploaded it on a bigger site. I 
know about the solos, verse or chorus. But the Intro is Right.
Beginners who wanna play the intro just skip the B string.
Suggest correction
Give kudos to tab author, rate the tab!
1 2 3 4 5
comments
print report bad tab
guest
You may want to rate the tab now too:
select rating
Please do not post tabs as comments. Select "correction" instead!