Oops, an error
Loading. Please wait.

Dont Break The Circle Bass Tab

version 1
version 1

Whole song

Interactive

252 views 1 this week
no commentswrite comment
1 2 3 4 5
please rate
add to favorites
launch autoscroll
font size
0
reset
guitar tuner
Autoscroll
slow
fast
+/-
esc
set tempo
stop
Help us to improve Ultimate-Guitar.com Take our survey!
×
Standard Tuning

G||-------------------|-------------------|-------------------|
D||-------------------|-------------------|-------------------|
A||--5----------------|--5----------------|--3----------------|
E||-------------------|-------------------|-------------------|


                                                             
--------------------|-------------------|-------------------|
--------------------|-------------------|-------------------|
--------------------|--5----------------|--5----------------|
--1--------0--------|-------------------|-------------------|


                                                             
-------------------|--------------------|-------------------|
-------------------|--------------------|-------------------|
--3----------------|--------------------|--5----------------|
-------------------|--1--------0--------|-------------------|


                                                             
-------------------|-------------------|--------------------|
-------------------|-------------------|--------------------|
--5----------------|--3----------------|--------------------|
-------------------|-------------------|--1--------0--------|


                                                            
-------------------|-------------------|-------------------|
-------------------|-------------------|-------------------|
--5----------------|--5----------------|--3----------------|
-------------------|-------------------|-------------------|


                                                                               
--------------------|-------------------|------------------|------------------|
--------------------|-------------------|------------------|------------------|
--------------------|--5----------------|------------------|------------------|
--1--------0--------|-------------------|------------------|------------------|


                                                                             
------------------|------------------|------------------|-------------------|
------------------|------------------|------------------|-------------------|
------------------|------------------|------------------|-------------------|
------------------|------------------|------------------|--5----------------|


                                                             
-------------------|-------------------|--------------------|
-------------------|-------------------|--------------------|
-------------------|-------------------|--8--------3--------|
----------------5--|--3----------------|--------------------|


                                                             
--------------------|-------------------|-------------------|
--------------------|-------------------|-------------------|
--5--------------8--|--5----------------|--5----------------|
--------------------|-------------------|-------------------|


                                                              
--------------------|-------------------|--------------------|
--------------------|-------------------|--------------------|
--8-----------------|-------------------|--8--------3--------|
-------------8------|--3----------------|--------------------|


                                                             
-------------------|--------------------|-------------------|
-------------------|--------------------|-------------------|
--5----------------|--8-----------------|--5----------------|
-------------------|-------------8------|-------------------|


                                                              
--------------------|--------------------|-------------------|
--------------------|--------------------|-------------------|
--8--------3--------|--5--------------8--|--5----------------|
--------------------|--------------------|-------------------|


                                                                        
|-----------------------------------|----------------------------------|
|*----------------------------------|----------------------------------|
|*--5-5-5-5-5-5-5-5-5-5-5-5-5-5-5-5-|--5-5-5-5-5-5-5-5-5-5-5-5-5-5-5-5-|
|-----------------------------------|----------------------------------|


                                          3x                    
-------------------|----------------------||-------------------|
-------------------|---------------------*||-------------------|
--8----------------|--10--------8--------*||--8----------------|
-------------------|----------------------||-------------------|


                                                                 
-------------------|----------------------|---------------------|
-------------------|----------------------|---------------------|
-------------------|-------8----7--8------|--8--7---------------|
--5----------------|--5-------------------|----------8----------|


                                                               
-------------------|-------------------|----------------------|
-------------------|-------------------|----------------------|
--8----------------|-------------------|-------8----7--8------|
-------------------|--5----------------|--5-------------------|


                                                                 
----------------------|------------------|----------------------|
----------------------|------------------|----------5--7--------|
--8--7----10----------|------------------|----5--8--------------|
----------------------|------------------|----------------------|


                                                            
-------------------|-------------------|-------------------|
-------------------|-------------------|--5----------------|
--5----------------|--5----------------|-------------------|
-------------------|-------------------|-------------------|


                                                             
--------------------|-------------------|-------------------|
--------------------|-------------------|-------------------|
--8--------7--------|--5----------------|--5----------------|
--------------------|-------------------|-------------------|


                                                                
-------------------|--------------------||---------------------|
-------------------|--------------------||*--------------------|
--3----------------|--------------------||*--8--------7--------|
-------------------|--1--------0--------||---------------------|


                                                          
----------------------|----------------------------------|
----------------------|----------------------------------|
--10--------7--8------|--5-5-5-5-5-5-5-5-5-5-5-5-5-5-5-5-|
----------------------|----------------------------------|


                                                                         
-----------------------------------||-----------------------------------|
----------------------------------*||*----------------------------------|
--5-5-5-5-5-5-5-5-5-5-5-5-5-5-5-5-*||*--5-5-5-5-5-5-5-5-5-5-5-5-5-5-5-5-|
-----------------------------------||-----------------------------------|


                                                                             3x
----------------------------------|-------------------|----------------------||
----------------------------------|-------------------|---------------------*||
--5-5-5-5-5-5-5-5-5-5-5-5-5-5-5-5-|--8----------------|--10--------8--------*||
----------------------------------|-------------------|----------------------||


                                                               
-------------------|-------------------|----------------------|
-------------------|-------------------|----------------------|
--8----------------|-------------------|-------8----7--8------|
-------------------|--5----------------|--5-------------------|


                                                              
---------------------|-------------------|-------------------|
---------------------|-------------------|-------------------|
--8--7---------------|--8----------------|-------------------|
----------8----------|-------------------|--5----------------|


                                                                
----------------------|---------------------|------------------|
----------------------|---------------------|------------------|
-------8----7--8------|--8--7---------------|------------------|
--5-------------------|----------8----------|------------------|


                                                                
----------------------|--------------------|-------------------|
----------5--7--------|--------------------|-------------------|
----5--8--------------|--5------------5----|--5----------------|
----------------------|--------------------|-------------------|


                                                              
-------------------|--------------------|--------------------|
--5----------------|--------------------|--------------------|
-------------------|--8--------7--------|--5--------------5--|
-------------------|--------------------|--------------------|


                                                                                
-------------------|-------------------|-------------------|-------------------|
-------------------|-------------------|-------------------|-------------------|
--5----------------|--3----------------|-------------------|-------------------|
-------------------|-------------------|--1----------------|--0----------------|


                                                                              
-------------------|------------------|-------------------|------------------|
-------------------|------------------|-------------------|------------------|
--5----------------|------------------|--5----------------|------------------|
-------------------|------------------|-------------------|------------------|


                                                                              
-------------------|------------------|-------------------|------------------|
-------------------|------------------|-------------------|------------------|
--5----------------|------------------|-------------------|------------------|
-------------------|------------------|--5----------------|------------------|


                                                                              
-------------------|------------------|-------------------|------------------|
-------------------|------------------|-------------------|------------------|
--5----------------|------------------|--5----------------|------------------|
-------------------|------------------|-------------------|------------------|


                                                                              
-------------------|------------------|-------------------|------------------|
-------------------|------------------|-------------------|------------------|
--5----------------|------------------|-------------------|------------------|
-------------------|------------------|--5----------------|------------------|


                                                                              
-------------------|------------------|-------------------|------------------|
-------------------|------------------|-------------------|------------------|
--5----------------|------------------|--5----------------|------------------|
-------------------|------------------|-------------------|------------------|


                                                                              
-------------------|------------------|-------------------|------------------|
-------------------|------------------|-------------------|------------------|
--5----------------|------------------|-------------------|------------------|
-------------------|------------------|--5----------------|------------------|


                                                                  
-------------------|------------------|-------------------|------|
-------------------|------------------|-------------------|------|
--5----------------|------------------|--5----------------|------|
-------------------|------------------|-------------------|------|


                                                                                
-------------------|------------------|-------------------|--------------------|
-------------------|------------------|-------------------|--------------------|
--5----------------|------------------|--5----------------|--8--------7--------|
-------------------|------------------|-------------------|--------------------|


                                                          
----------------------|----------------------------------|
----------------------|----------------------------------|
--10--------7--8------|--5-5-5-5-5-5-5-5-5-5-5-5-5-5-5-5-|
----------------------|----------------------------------|


                                                                             
----------------------------------|-------------------|---------------------|
----------------------------------|-------------------|---------------------|
--5-5-5-5-5-5-5-5-5-5-5-5-5-5-5-5-|--8----------------|--10--------8--------|
----------------------------------|-------------------|---------------------|


                                                                        
|-----------------------------------|----------------------------------|
|*----------------------------------|----------------------------------|
|*--5-5-5-5-5-5-5-5-5-5-5-5-5-5-5-5-|--5-5-5-5-5-5-5-5-5-5-5-5-5-5-5-5-|
|-----------------------------------|----------------------------------|


                                          2x                    
-------------------|----------------------||-------------------|
-------------------|---------------------*||-------------------|
--8----------------|--10--------8--------*||--8----------------|
-------------------|----------------------||-------------------|


                                                                 
-------------------|----------------------|---------------------|
-------------------|----------------------|---------------------|
-------------------|-------8----7--8------|--8--7---------------|
--5----------------|--5-------------------|----------8----------|


                                                               
-------------------|-------------------|----------------------|
-------------------|-------------------|----------------------|
--8----------------|-------------------|-------8----7--8------|
-------------------|--5----------------|--5-------------------|


                                                                 
----------------------|------------------|----------------------|
----------------------|------------------|----------5--7--------|
--8--7----10----------|------------------|----5--8--------------|
----------------------|------------------|----------------------|


                                                            
-------------------|-------------------|-------------------|
-------------------|-------------------|--5----------------|
--5----------------|--5----------------|-------------------|
-------------------|-------------------|-------------------|


                                                             
--------------------|-------------------|-------------------|
--------------------|-------------------|-------------------|
--8--------7--------|--5----------------|--5----------------|
--------------------|-------------------|-------------------|


                                                                              
-------------------|--------------------||-----------------------------------|
-------------------|--------------------||*----------------------------------|
--3----------------|--------------------||*--5-5-5-5-5-5-5-5-5-5-5-5-5-5-5-5-|
-------------------|--1--------0--------||-----------------------------------|


                                                                      
----------------------------------|----------------------------------|
----------------------------------|----------------------------------|
--5-5-5-5-5-5-5-5-5-5-5-5-5-5-5-5-|--8-8-8-8-8-8-8-8-8-8-8-8-8-8-8-8-|
----------------------------------|----------------------------------|


                                                                  
-------------------------------------------||--------------------|
------------------------------------------*||--------------------|
--10-10-10-10-10-10-10-10-8-8-8-8-8-8-8-8-*||--8--------7--------|
-------------------------------------------||--------------------|


                                                          
----------------------|----------------------------------|
----------------------|----------------------------------|
--10--------7--8------|--5-5-5-5-5-5-5-5-5-5-5-5-5-5-5-5-|
----------------------|----------------------------------|


                                                                               
----------------------------------|--------------------|----------------------|
----------------------------------|--------------------|----------------------|
--5-5-5-5-5-5-5-5-5-5-5-5-5-5-5-5-|--8--------7--------|--10--------7--8------|
----------------------------------|--------------------|----------------------|


                                                             
-------------------|--------------------|-------------------|
-------------------|--------------------|-------------------|
-------------------|--8-----------------|-------------------|
--3----------------|-------------8------|--3----------------|


                                                              
--------------------|-------------------|--------------------|
--------------------|-------------------|--------------------|
--8--------3--------|--5----------------|--8-----------------|
--------------------|-------------------|-------------8------|


                                                              
-------------------|--------------------|--------------------|
-------------------|--------------------|--------------------|
--5----------------|--8--------3--------|--5--------------8--|
-------------------|--------------------|--------------------|


                                                             
-------------------|-------------------|--------------------|
-------------------|-------------------|--------------------|
--5----------------|-------------------|--8-----------------|
-------------------|--3----------------|-------------8------|


                                                             
-------------------|--------------------|-------------------|
-------------------|--------------------|-------------------|
-------------------|--8--------3--------|--5----------------|
--3----------------|--------------------|-------------------|


                                            
----------------------|-------------------||
----------------------|-------------------||
--8--7----5----3------|--5----------------||
----------------------|-------------------||
Suggest correction
Give kudos to tab author, rate the tab!
1 2 3 4 5
comments
print report bad tab
guest
You may want to rate the tab now too:
select rating
Wanna post a correction for this tab? Suggest correction