Oops, an error
Loading. Please wait.

Traveler In Time tab

version 2
version 2

Whole song

Interactive

1,017 views 1 this week
no commentswrite comment
1 2 3 4 5
2 more votes to show rating
add to favorites
×
Save as Personal and add changes to this tab that will be seen only by you. Learn more ›
×
You can save this tab as Personal to edit and correct it or add notes. All changes will be seen only by you. Learn more »
launch autoscroll
font size
0
reset
how to read this tab
guitar tuner
edit
Autoscroll
slow
fast
+/-
esc
set tempo
stop
#----------------------------------PLEASE NOTE---------------------------------#
#This file is the author's own work and represents their interpretation of the #
#song. You may only use this file for private study, scholarship, or research. #
#------------------------------------------------------------------------------#

TRAVELER IN TIME
As recorded by Blind Guardian
(From the 1990 Album TALES FROM THE TWILIGHT WORLD)


Transcribed by Drimascus_God_Of_Thunder

 Words and Music by Blind Guardian

 

Eb5
0 2 2 x x x G#5
x 0 2 2 x x F5
2 4 4 x x x D5/A
6 6 x x x x 
Bb5
x 2 4 4 x x Eb5(type 2)
x 7 9 9 x x 


Gtr I (Eb Ab Db Gb Bb Eb) - 'Rhythm'
Gtr II (Eb Ab Db Gb Bb Eb) - 'Lead'
Gtr III (Eb Ab Db Gb Bb Eb) - 'Lead2'
Gtr IV (Eb Ab Db Gb Bb Eb) - 'Acoustic'


 Intro
  Q=89
  E5         E5               Bb5     C5   G5           F5
 4/4
  Gtr I
                 |-3-|                         |-3-|
  W          E E E E E H      H.      Q    E E E E E Q  Q
|----------|----------------|------------|-----------------|
|----------|----------------|------------|-----------------|
|----------|----------------|-3-------5--|-----------------|
|-2--------|-2---2-2-2-2----|-3-------5--|-5---5-5-5-5--3--|
|-2--------|-2---2-2-2-2----|-1-------3--|-5---5-5-5-5--3--|
|-0--------|-0---0-0-0-0----|------------|-3---3-3-3-3--1--|


    Eb5          G#5   F5    D5/A
    Gtr I
    H.            Q     H    H
    |             |     |    |
    /             /     /    /

    Gtr II
    E  E E  E Q   Q     H    H
||-------------------|------------|
||o-----------8--10--|------------|
||--9--8-9-11--------|-11----8----|
||-------------------|------------|
||o------------------|------------|
||-------------------|------------|


                    1.              2.
  Eb5          G#5   F5    Bb5       F5    Bb5   Eb5(type 2)
  H.            Q     H     H         H     Q.   E
  |             |     |     |         |     |    |
  /             /     /     /         /     /    /

  E  E E  E Q   Q     H     H         H     H
|------------------|--------------||-----------------|
|-----------8--10--|-11----12----o||-11----12--------|
|-9--8-9-11--------|--------------||-----------------|
|------------------|--------------||-----------------|
|------------------|-------------o||-----------------|
|------------------|--------------||-----------------|


  E5         Bb5  F5   C5  C5        E5  E5
  Gtr I
  W          H    Q.   E   H..       E   W          +W
|----------|-------------|-------------|----------|--------|
|----------|-------------|-------------|----------|--------|
|-9--------|-------------|-5-----------|----------|--------|
|-9--------|-3----3----5-|-5-----------|-2--------|-(2)----|
|-7--------|-1----3----3-|-3---------2-|-2--------|-(2)----|
|----------|------1------|-----------0-|-0--------|-(0)----|


    Q=172
    E5    Eb5   E5    Gb5      G5                   A5
    E S S E S S E S S  E S S    E  S  S  S  S  S  S  E  S  S  S  S  S  S
||---------------------------|-------------------------------------------|
||o--------------------------|-------------------------------------------|
||---------------------------|-------------------------------------------|
||--9-----8-----9-----11-----|-12-------------------14-------------------|
||o-7-7-7-6-6-6-7-7-7--9-9-9-|-10-10-10-10-10-10-10-12-12-12-12-12-12-12-|
||---------------------------|-------------------------------------------|


  Gb5                             Eb5
   E S S S S S S  E S S S S S S   E S S S S S S E S S S S S S
|-------------------------------|------------------------------|
|-------------------------------|------------------------------|
|-------------------------------|------------------------------|
|-11-------------11-------------|-8-------------8--------------|
|--9-9-9-9-9-9-9--9-9-9-9-9-9-9-|-6-6-6-6-6-6-6-6-6-6-6-6-6-6--|
|-------------------------------|------------------------------|


  E5    Eb5   E5    Gb5      G5                   A5
  E S S E S S E S S  E S S    E  S  S  S  S  S  S  E  S  S  S  S  S  S
|--------------------------|-------------------------------------------|
|--------------------------|-------------------------------------------|
|--------------------------|-------------------------------------------|
|-9-----8-----9-----11-----|-12-------------------14-------------------|
|-7-7-7-6-6-6-7-7-7--9-9-9-|-10-10-10-10-10-10-10-12-12-12-12-12-12-12-|
|--------------------------|-------------------------------------------|


  Bb5                             Cb5
   E S S S S S S  E S S S S S S    E S S S S S S  E S S S S S S
|-------------------------------|----------------------------------||
|-------------------------------|---------------------------------o||
|-10-------------10-------------|-11-------------11----------------||
|--8-8-8-8-8-8-8--8-8-8-8-8-8-8-|--9-9-9-9-9-9-9--9-9-9-9-9-9-9----||
|-------------------------------|---------------------------------o||
|-------------------------------|----------------------------------||


 Verse
  E5                              C5            D5
  E S S S S S S S S S S S S S S   E S S S S S S E S S S S S S
|-------------------------------|-----------------------------|
|-------------------------------|-----------------------------|
|-------------------------------|-5-------------7-------------|
|-2-----------------------------|-5-------------7-------------|
|-2-----------------------------|-3-3-3-3-3-3-3-5-5-5-5-5-5-5-|
|-0-0-0-0-0-0-0-0-0-0-0-0-0-0-0-|-----------------------------|


  D5                        Cb5
  E S S E S S E S S E S S   E S S E S S E S S E S S
|-------------------------|----------------------------|
|-------------------------|----------------------------|
|-7-----------------------|-4--------------------------|
|-7-----7-----7-----7-----|-4-----4-----4-----4--------|
|-5-5-5-5-5-5-5-5-5-5-5-5-|-2-2-2-2-2-2-2-2-2-2-2-2----|
|-------------------------|----------------------------|


  E5                              C5            D5
  E S S S S S S S S S S S S S S   E S S S S S S E S S S S S S
|-------------------------------|-----------------------------|
|-------------------------------|-----------------------------|
|-------------------------------|-5-------------7-------------|
|-2-----------------------------|-5-------------7-------------|
|-2-----------------------------|-3-3-3-3-3-3-3-5-5-5-5-5-5-5-|
|-0-0-0-0-0-0-0-0-0-0-0-0-0-0-0-|-----------------------------|


  D5                              Cb5
  E S S S S S S S S S S S S S S   E S S S S S S S S S S S S S S
|-------------------------------|---------------------------------|
|-------------------------------|---------------------------------|
|-7-----------------------------|-4-------------------------------|
|-7-----------------------------|-4-------------------------------|
|-5-5-5-5-5-5-5-5-5-5-5-5-5-5-5-|-2-2-2-2-2-2-2-2-2-2-2-2-2-2-2---|
|-------------------------------|---------------------------------|


  E5                              A5
  E S S S S S S S S S S S S S S   E S S S S S S S S S S S S S S
|-------------------------------|-------------------------------|
|-------------------------------|-------------------------------|
|-------------------------------|-2-----------------------------|
|-2-----------------------------|-2-----------------------------|
|-2-----------------------------|-0-0-0-0-0-0-0-0-0-0-0-0-0-0-0-|
|-0-0-0-0-0-0-0-0-0-0-0-0-0-0-0-|-------------------------------|
|
| Gtr II
| W                               W
|-------------------------------|-------------------------------|
|-------------------------------|-------------------------------|
|-------------------------------|-------------------------------|
|-------------------------------|-------------------------------|
|-------------------------------|-------------------------------|
|-------------------------------|-------------------------------|


  Cb5                                   Cb5
  E S S S S S S S S S S   S  S   S  S     E  S S S S S S S S S S   S   S S S
|-------------------------------------|---------------------------------------|
|-------------------------------------|---------------------------------------|
|-4-----------------------------------|---4-----------------------------------|
|-4-----------------------------------|---4-----------------------------------|
|-2-2-2-2-2-2-2-2-2-2-2---2--2---2--2-|---2--2-2-2-2-2-2-2-2-2-2---2---2-2-2--|
|-------------------------------------|---------------------------------------|
|
|                                         ~~~~
| H             Q         E      E        H.                      +Q
|-----------------------<12>----------|---------------------------------------|
|------------------------------<12>---|---------------------------------------|
|-------------------------------------|-<12>---------------------(12)\--------|
|-------------------------------------|---------------------------------------|
|-------------------------------------|---------------------------------------|
|-------------------------------------|---------------------------------------|


  E5                              C5
  E S S S S S S S S S S S S S S   E S S S S S S S S S S S S S S
|-------------------------------|-------------------------------|
|-------------------------------|-------------------------------|
|-------------------------------|-5-----------------------------|
|-2-----------------------------|-5-----------------------------|
|-2-----------------------------|-3-3-3-3-3-3-3-3-3-3-3-3-3-3-3-|
|-0-0-0-0-0-0-0-0-0-0-0-0-0-0-0-|-------------------------------|


  A5                              Cb5
  E S S S S S S S S S S S S S S   E S S S S S S S S S S S S S S
|-------------------------------|--------------------------------|
|-------------------------------|--------------------------------|
|-2-----------------------------|-4------------------------------|
|-2-----------------------------|-4------------------------------|
|-0-0-0-0-0-0-0-0-0-0-0-0-0-0-0-|-2-2-2-2-2-2-2-2-2-2-2-2-2-2-2--|
|-------------------------------|--------------------------------|


  D5                      C5         A5
  W          +W           W          W
|----------|------------|----------|------|
|----------|------------|----------|------|
|-7--------|-(7)--------|-5--------|-2----|
|-7--------|-(7)--------|-5--------|-2----|
|-5--------|-(5)--------|-3--------|-0----|
|----------|------------|----------|------|


 Solo1
  E5                                    A5
   E  S S  S S  S S  S S S S  S S S S    E S S S S S S  S S S S S S S S
|-------------------------------------|---------------------------------|
|-------------------------------------|---------------------------------|
|-------------------------------------|--2------------------------------|
|--2----------------------------------|--2------------------------------|
|--2----------------------------------|--0-0-0-0-0-0-0--0-0-0-0-0-0-0-0-|
|--0--0-0--0-0--0-0--0-0-0-0--0-0-0-0-|---------------------------------|
|
| Gtr II
|  E  E    E    E    Q        Q          H              H
|-------------------------------------|---------------------------------|
|-------------------12-------15-------|-14-------------13---------------|
|-12-11---12---14---------------------|---------------------------------|
|-------------------------------------|---------------------------------|
|-------------------------------------|---------------------------------|
|-------------------------------------|---------------------------------|
|
| Gtr III
|  E  E    E    E    H                   E E   E   E    H
|-------------------------------------|---------------------------------|
|-------------------------------------|---------------------------------|
|-------------------------------------|------------4----5---------------|
|---------------4----5----------------|--7-6---7------------------------|
|--7--6----7--------------------------|---------------------------------|
|-------------------------------------|---------------------------------|


  C5                  Cb5                D5                 C5
   E    S S  S S  S S  E  S S S S  S S    E S S  S  S  S  S  E S S  S S  S S
|--------------------------------------|----------------------------------------|
|--------------------------------------|----------------------------------------|
|--------------------------------------|----------------------------------------|
|--5-------------------4---------------|--7------------------5------------------|
|--3----3-3--3-3--3-3--2--2-2-2-2--2-2-|--5-5-5--5--5--5--5--3-3-3--3-3--3-3----|
|--------------------------------------|----------------------------------------|
|
|  Q         E    E    E  Q        E      Q      S  S  S  S  Q      E    E
|--------------------------------------|----------------------------------------|
|-15b17-----15---13---12-13-------15---|-15-----13-15-13-12---------------------|
|--------------------------------------|--------------------14-----12---11------|
|--------------------------------------|----------------------------------------|
|--------------------------------------|----------------------------------------|
|--------------------------------------|----------------------------------------|
|
|  Q         E    E    E  Q        E      Q      S  S  S  S  Q      E    E
|--------------------------------------|----------------------------------------|
|--------------------------------------|----------------------------------------|
|--------------------------------------|----------------------------------------|
|-14--------12---10----9-10-------12---|-12-----10-12-10--9---------------------|
|--------------------------------------|--------------------12-----10----9------|
|--------------------------------------|----------------------------------------|


  E5                                    A5
  Gtr I
   E  S S  S S  S S  S S S S  S S S S    E S S S S S S  S S S S S S S S
|-------------------------------------|---------------------------------|
|-------------------------------------|---------------------------------|
|-------------------------------------|--2------------------------------|
|--2----------------------------------|--2------------------------------|
|--2----------------------------------|--0-0-0-0-0-0-0--0-0-0-0-0-0-0-0-|
|--0--0-0--0-0--0-0--0-0-0-0--0-0-0-0-|---------------------------------|
|
|  E  E    E    E    Q        Q          H              H
|-------------------------------------|---------------------------------|
|-------------------12-------15-------|-14-------------13---------------|
|-12-11---12---14---------------------|---------------------------------|
|-------------------------------------|---------------------------------|
|-------------------------------------|---------------------------------|
|-------------------------------------|---------------------------------|
|
|  E  E    E    E    H                   E E   E   E    H
|-------------------------------------|---------------------------------|
|-------------------------------------|---------------------------------|
|-------------------------------------|------------4----5---------------|
|---------------4----5----------------|--7-6---7------------------------|
|--7--6----7--------------------------|---------------------------------|
|-------------------------------------|---------------------------------|


  C5               Cb5                D5                 C5
   E S S  S S  S S  E  S S S S  S S    E S S  S  S  S  S  E S S  S S  S S
|-----------------------------------|----------------------------------------|
|-----------------------------------|----------------------------------------|
|-----------------------------------|----------------------------------------|
|--5----------------4---------------|--7------------------5------------------|
|--3-3-3--3-3--3-3--2--2-2-2-2--2-2-|--5-5-5--5--5--5--5--3-3-3--3-3--3-3----|
|-----------------------------------|----------------------------------------|
|
|  Q      E    E    E  Q        E      Q      S  S  S  S  Q      E    E
|-----------------------------------|----------------------------------------|
|-17-----15---13---12-13-------15---|-15-----13-15-13-12---------------------|
|-----------------------------------|--------------------14-----12---11------|
|-----------------------------------|----------------------------------------|
|-----------------------------------|----------------------------------------|
|-----------------------------------|----------------------------------------|
|
|  Q      E    E    E  Q        E      Q      S  S  S  S  Q      E    E
|-----------------------------------|----------------------------------------|
|-----------------------------------|----------------------------------------|
|-----------------------------------|----------------------------------------|
|-14-----12---10----9-10-------12---|-12-----10-12-10--9---------------------|
|-----------------------------------|--------------------12-----10----9------|
|-----------------------------------|----------------------------------------|


 Verse2
  A5         F5   G5     A5
  W          H    H      E S S S S S S S S S S S S S S
|----------|-----------|-------------------------------|
|----------|-----------|-------------------------------|
|-2--------|-----------|-2-----------------------------|
|-2--------|-3----5----|-2-----------------------------|
|-0--------|-3----5----|-0-0-0-0-0-0-0-0-0-0-0-0-0-0-0-|
|----------|-1----3----|-------------------------------|


  Bb5                             F5
  E S S S S S S S S S S S S S S   E S S S S S S S S S S S S S S
|-------------------------------|----------------------------------|
|-------------------------------|----------------------------------|
|-3-----------------------------|----------------------------------|
|-3-----------------------------|-3--------------------------------|
|-1-1-1-1-1-1-1-1-1-1-1-1-1-1-1-|-3--------------------------------|
|-------------------------------|-1-1-1-1-1-1-1-1-1-1-1-1-1-1-1----|


  D5            G5              C5
  E S S S S S S E S S S S S S   E S S S S S S S S S S S S S S
|-----------------------------|-------------------------------|
|-----------------------------|-------------------------------|
|-----------------------------|-------------------------------|
|-7---------------------------|-5-----------------------------|
|-5-5-5-5-5-5-5-5-------------|-3-3-3-3-3-3-3-3-3-3-3-3-3-3-3-|
|---------------3-3-3-3-3-3-3-|-------------------------------|


  F5                              Bb5
  E S S S S S S S S S S S S S S   W
|-------------------------------|------|
|-------------------------------|------|
|-------------------------------|------|
|-3-----------------------------|-3----|
|-3-----------------------------|-1----|
|-1-1-1-1-1-1-1-1-1-1-1-1-1-1-1-|------|


 Chorus
  F5   G5     A5         F5   C5     E5
  H    H      W          H    H      W
|-----------|----------|-----------|------|
|-----------|----------|-----------|------|
|-----------|-2--------|------5----|------|
|-3----5----|-2--------|-3----5----|-2----|
|-3----5----|-0--------|-3----3----|-2----|
|-1----3----|----------|-1---------|-0----|


  F5   G5     A5         F5   C5     E5
  H    H      W          H    H      W
|-----------|----------|-----------|------|
|-----------|----------|-----------|------|
|-----------|-2--------|------5----|------|
|-3----5----|-2--------|-3----5----|-2----|
|-3----5----|-0--------|-3----3----|-2----|
|-1----3----|----------|-1---------|-0----|


 Solo2
  F5                G5
   E  S S  S S  S S  E  S S  S S  S S
|-------------------------------------|
|-------------------------------------|
|-------------------------------------|
|--3-----------------5----------------|
|--3-----------------5----------------|
|--1--1-1--1-1--1-1--3--3-3--3-3--3-3-|
|
| Gtr II
|  E  E    E    E    E  E    E    E
|-------------------12----------------|
|----------------------15---13---12---|
|--------------12---------------------|
|-15-14---15--------------------------|
|-------------------------------------|
|-------------------------------------|
|
| Gtr III
|  E  E    E    E    E  E    E    E
|-------------------12----------------|
|----------------------15---13---12---|
|--------------12---------------------|
|-15-14---15--------------------------|
|-------------------------------------|
|-------------------------------------|


  A5
   E        S S  S S  S S  S S S S S S S S
|-------------------------------------------|
|-------------------------------------------|
|--2----------------------------------------|
|--2----------------------------------------|
|--0--------0-0--0-0--0-0--0-0-0-0-0-0-0-0--|
|-------------------------------------------|
|
|                          ~~
|  |--3--|
|  S  S  S  E    E    E    H
|-------------------------------------------|
|-13-12-13-12-------------------------------|
|---------------14---12---------------------|
|-------------------------14----------------|
|-------------------------------------------|
|-------------------------------------------|
|
|                          ~~
|  |--3--|
|  S  S  S  E    E    E    H
|-15-13-15-13---12---13---12----------------|
|-------------------------------------------|
|-------------------------------------------|
|-------------------------------------------|
|-------------------------------------------|
|-------------------------------------------|


  F5                C5
   E  S S  S S  S S  E  S S  S S  S S
|-------------------------------------|
|-------------------------------------|
|--------------------5----------------|
|--3-----------------5----------------|
|--3-----------------3--3-3--3-3--3-3-|
|--1--1-1--1-1--1-1-------------------|
|
|  E  E    E    E    E  E    E    E
|-------------------------------------|
|-------------------------------------|
|--------------12---14-12-------------|
|-15-14---15----------------15---14---|
|-------------------------------------|
|-------------------------------------|
|
|  E  E    E    E    E  E    E    E
|--------------15---17-15-------------|
|-18-17---18----------------18---17---|
|-------------------------------------|
|-------------------------------------|
|-------------------------------------|
|-------------------------------------|


  E5
   E        S S  S S  S S  S S S S S S S S
|-------------------------------------------|
|-------------------------------------------|
|-------------------------------------------|
|--2----------------------------------------|
|--2----------------------------------------|
|--0--------0-0--0-0--0-0--0-0-0-0-0-0-0-0--|
|
|                          ~~
|  |--3--|
|  S  S  S  E    E    E    H
|-------------------------------------------|
|-------------------------------------------|
|-------------------------------------------|
|-15-14-15-14---12--------12----------------|
|--------------------15---------------------|
|-------------------------------------------|
|
|                          ~~
|  |--3--|
|  S  S  S  E    E    E    H
|-------------------------------------------|
|-18-17-18-17---15--------15----------------|
|--------------------17---------------------|
|-------------------------------------------|
|-------------------------------------------|
|-------------------------------------------|


  F5
   E  S S  S S  S S  S S  S S  S S  S S
|---------------------------------------|
|---------------------------------------|
|---------------------------------------|
|--3------------------------------------|
|--3------------------------------------|
|--1--1-1--1-1--1-1--1-1--1-1--1-1--1-1-|
|
|  E  E    E    E    E    E    E    E
|------------------------12---13---15---|
|---------12---13---15------------------|
|-12-14---------------------------------|
|---------------------------------------|
|---------------------------------------|
|---------------------------------------|
|
|  E  E    E    E    E    E    E    E
|------------------------15---17---19---|
|---------15---17---18------------------|
|-16-17---------------------------------|
|---------------------------------------|
|---------------------------------------|
|---------------------------------------|


  E5
   E        S S  S S  S S  S S S S   S   S S S
|----------------------------------------------|
|----------------------------------------------|
|----------------------------------------------|
|--2-------------------------------------------|
|--2-------------------------------------------|
|--0--------0-0--0-0--0-0--0-0-0-0---0---0-0-0-|
|
|                          ~~
|  |--3--|
|  S  S  S  E    E    E    Q        +Q
|-13-12-13-12-------------12-------(12)\-------|
|---------------15---13------------------------|
|----------------------------------------------|
|----------------------------------------------|
|----------------------------------------------|
|----------------------------------------------|
|
|                          ~~
|  |--3--|
|  S  S  S  E    E    E    Q        +Q
|-17-15-17-15-------------15-------(15)\-------|
|---------------18---17------------------------|
|----------------------------------------------|
|----------------------------------------------|
|----------------------------------------------|
|----------------------------------------------|


 Verse3
  A5                              A5
  E S S S S S S S S S S S S S S   E S S S S S S S S S S S S S S
|-------------------------------|-------------------------------|
|-------------------------------|-------------------------------|
|-2-----------------------------|-2-----------------------------|
|-2-----------------------------|-2-----------------------------|
|-0-0-0-0-0-0-0-0-0-0-0-0-0-0-0-|-0-0-0-0-0-0-0-0-0-0-0-0-0-0-0-|
|-------------------------------|-------------------------------|


  D5                              D5
  E S S S S S S S S S S S S S S   E S S S S S S S S S S S S S S
|-------------------------------|--------------------------------|
|-------------------------------|--------------------------------|
|-7-----------------------------|-7------------------------------|
|-7-----------------------------|-7------------------------------|
|-5-5-5-5-5-5-5-5-5-5-5-5-5-5-5-|-5-5-5-5-5-5-5-5-5-5-5-5-5-5-5--|
|-------------------------------|--------------------------------|


  F5
  E S S S S S S S S S S S S S S
|-------------------------------|
|-------------------------------|
|-------------------------------|
|-3-----------------------------|
|-3-----------------------------|
|-1-1-1-1-1-1-1-1-1-1-1-1-1-1-1-|


  F5                              E5
  E S S S S S S S S S S S S S S   W          +W
|-------------------------------|----------|--------|
|-------------------------------|----------|--------|
|-------------------------------|----------|--------|
|-3-----------------------------|-2--------|-(2)----|
|-3-----------------------------|-2--------|-(2)----|
|-1-1-1-1-1-1-1-1-1-1-1-1-1-1-1-|-0--------|-(0)----|


  C5             G5         F5
  Q.   Q.   Q    W          E S S S S S S S S S S S S S S
|--------------|----------|-------------------------------|
|--------------|----------|-------------------------------|
|-5----5----5--|----------|-------------------------------|
|-5----5----5--|-5--------|-3-----------------------------|
|-3----3----3--|-5--------|-3-----------------------------|
|--------------|-3--------|-1-1-1-1-1-1-1-1-1-1-1-1-1-1-1-|


  F5
  E S S S S S S S S S S S S S S
|--------------------------------|
|--------------------------------|
|--------------------------------|
|-3------------------------------|
|-3------------------------------|
|-1-1-1-1-1-1-1-1-1-1-1-1-1-1-1--|


                E5     G5   A5   Bb5              E5     G5   A5   Bb5
    |-3-| |-3-|                       |-3-| |-3-|
    E E E E E E H      Q.   Q.   Q    E E E E E E H      Q.   Q.   Q
||-------------------|--------------|------------------|----------------||
||o------------------|--------------|------------------|---------------o||
||-------------------|--------------|------------------|----------------||
||--------------2----|------2----3--|-------------2----|------2----3----||
||o-------------2----|-5----0----1--|-------------2----|-5----0----1---o||
||--0-0-0-0-0-0-0----|-3------------|-0-0-0-0-0-0-0----|-3--------------||


  F5
  E S S S S S S S S S S S S S S   S S S S S S S S S S S S S S S S
|-------------------------------|---------------------------------|
|-------------------------------|---------------------------------|
|-------------------------------|---------------------------------|
|-3-----------------------------|---------------------------------|
|-3-----------------------------|---------------------------------|
|-1-1-1-1-1-1-1-1-1-1-1-1-1-1-1-|-1-1-1-1-1-1-1-1-1-1-1-1-1-1-1-1-|


  D5                              G5
  E S S S S S S S S S S S S S S   E S S S S S S S S S S S S S S
|-------------------------------|-------------------------------|
|-------------------------------|-------------------------------|
|-7-----------------------------|-------------------------------|
|-7-----------------------------|-5-----------------------------|
|-5-5-5-5-5-5-5-5-5-5-5-5-5-5-5-|-5-----------------------------|
|-------------------------------|-3-3-3-3-3-3-3-3-3-3-3-3-3-3-3-|


  C5                              F5                              Bb5
  E S S S S S S S S S S S S S S   E S S S S S S S S S S S S S S   W
|-------------------------------|-------------------------------|------|
|-------------------------------|-------------------------------|------|
|-5-----------------------------|-------------------------------|------|
|-5-----------------------------|-3-----------------------------|-3----|
|-3-3-3-3-3-3-3-3-3-3-3-3-3-3-3-|-3-----------------------------|-1----|
|-------------------------------|-1-1-1-1-1-1-1-1-1-1-1-1-1-1-1-|------|


 Chorus
  F5   G5     A5         F5   C5     E5
  H    H      W          H    H      W
|-----------|----------|-----------|------|
|-----------|----------|-----------|------|
|-----------|-2--------|------5----|------|
|-3----5----|-2--------|-3----5----|-2----|
|-3----5----|-0--------|-3----3----|-2----|
|-1----3----|----------|-1---------|-0----|


  F5   G5     A5         F5   C5     E5
  H    H      W          H    H      W
|-----------|----------|-----------|------|
|-----------|----------|-----------|------|
|-----------|-2--------|------5----|------|
|-3----5----|-2--------|-3----5----|-2----|
|-3----5----|-0--------|-3----3----|-2----|
|-1----3----|----------|-1---------|-0----|


 Solo3
  A5                      Bb5
  Gtr I
   W                       W
|-----------------------|------------------------------|
|-----------------------|------------------------------|
|--2--------------------|--3---------------------------|
|--2--------------------|--3---------------------------|
|--0--------------------|--1---------------------------|
|-----------------------|------------------------------|
|
| Gtr II
|                                        |--3--|
|  E  E  E E  E  E  E E    E  E  E E  E  S  S  S  E  E
|-12---------13-12------|-15-13-12---13-12-13-12-------|
|----13----0-------13-0-|----------0-------------15-13-|
|-------12--------------|------------------------------|
|-----------------------|------------------------------|
|-----------------------|------------------------------|
|-----------------------|------------------------------|


  A5                      G5
   W                       W
|-----------------------|------------------------------|
|-----------------------|------------------------------|
|--2--------------------|------------------------------|
|--2--------------------|--5---------------------------|
|--0--------------------|--5---------------------------|
|-----------------------|--3---------------------------|
|
|                                        |--3--|
|  E  E  E E  E  E  E E    E  E  E E  E  S  S  S  E  E
|-12---------13-12------|-15-13-12---13-12-13-12-------|
|----13----0-------13-0-|----------0-------------15-13-|
|-------12--------------|------------------------------|
|-----------------------|------------------------------|
|-----------------------|------------------------------|
|-----------------------|------------------------------|


  C5                       C#5
   W                        W
|------------------------|----------------------------|
|------------------------|----------------------------|
|--5---------------------|--6-------------------------|
|--5---------------------|--6-------------------------|
|--3---------------------|--4-------------------------|
|------------------------|----------------------------|
|
|                                       ~~~
|                                             |--3--|
|  E  E  E E  E  E  E  E    E  E  E  E  Q.    S  S  S
|-12---------12-13-12----|-13-12----------------------|
|----13----0----------13-|-------15-13-15----13-15-13-|
|-------12---------------|----------------------------|
|------------------------|----------------------------|
|------------------------|----------------------------|
|------------------------|----------------------------|


  C5                 Bb5
   W                  W
|------------------|---------------|
|------------------|---------------|
|--5---------------|--3------------|
|--5---------------|--3------------|
|--3---------------|--1------------|
|------------------|---------------|
|
|                             ~~
|  Q   E  Q.    Q     Q   Q   H
|-12-----------12--|---------------|
|-----13-----------|-15--13--------|
|--------12--------|---------15----|
|------------------|---------------|
|------------------|---------------|
|------------------|---------------|


  A5                 Ab5
   W                  W
|------------------|------------------|
|------------------|------------------|
|--2---------------|------------------|
|--2---------------|--6---------------|
|--0---------------|--6---------------|
|------------------|--4---------------|
|
|  ~~
|  H     Q   Q        Q   E  Q.    Q
|------------------|------------------|
|-------13--15b17--|-15--13-15--------|
|-14---------------|--------------13--|
|------------------|------------------|
|------------------|------------------|
|------------------|------------------|


  C5                      Bb5
   W                       W
|-----------------------|--------------------|
|-----------------------|--------------------|
|--5--------------------|--3-----------------|
|--5--------------------|--3-----------------|
|--3--------------------|--1-----------------|
|-----------------------|--------------------|
|
|  ~~
|               |--3--|
|  Q   E  H     S  S  S    Q   E  Q.    Q
|--------------15-15-15-|-15--13-12----13----|
|-----------------------|--------------------|
|-12--14-12-------------|--------------------|
|-----------------------|--------------------|
|-----------------------|--------------------|
|-----------------------|--------------------|


  A5                    Ab5
   W                     W
|---------------------|-------------------|
|---------------------|-------------------|
|--2------------------|-------------------|
|--2------------------|--6----------------|
|--0------------------|--6----------------|
|---------------------|--4----------------|
|
|  Q   E  Q.    Q        Q.      Q.    Q
|-12--13-12-----------|-------------------|
|--------------15b17--|-15b17---15--------|
|---------------------|---------------13--|
|---------------------|-------------------|
|---------------------|-------------------|
|---------------------|-------------------|


  C5          Bb5
   W           W
|-----------|-------------------------|
|-----------|-------------------------|
|--5--------|--3----------------------|
|--5--------|--3----------------------|
|--3--------|--1----------------------|
|-----------|-------------------------|
|
|  W           H         +Q    +E   E
|-----------|-------------------------|
|-----------|-20b22=====(20)r=(20)-17-|
|-12--------|-------------------------|
|-----------|-------------------------|
|-----------|-------------------------|
|-----------|-------------------------|


  F5
   E     S S S S S S   S  S S S S S   S  S    S S  S S  S S  S S  S S  S S  S S  S S
|------------------------------------------|-----------------------------------------|
|------------------------------------------|-----------------------------------------|
|------------------------------------------|-----------------------------------------|
|--3---------------------------------------|-----------------------------------------|
|--3---------------------------------------|-----------------------------------------|
|--1-----1-1-1-1-1-1---1--1-1-1-1-1---1--1-|--1-1--1-1--1-1--1-1--1-1--1-1--1-1--1-1-|
|
|                                             TP   TP   TP   TP   TP   TP   TP   TP
|  H                  +Q.            +E       E    E    E    E    E    E    E    E
|------------------------------------------|-17--------19--------20--------19--------|
|-20b22==============(20)r==========(20)---|------17--------17--------17--------17---|
|------------------------------------------|-----------------------------------------|
|------------------------------------------|-----------------------------------------|
|------------------------------------------|-----------------------------------------|
|------------------------------------------|-----------------------------------------|


  A5
   W                    +W
|---------------------|----------------------|
|---------------------|----------------------|
|--2------------------|-(2)------------------|
|--2------------------|-(2)------------------|
|--0------------------|-(0)------------------|
|---------------------|----------------------|
|
|  E  E  Q   E  E  Q     E   E  Q   E  E  Q
|-15-13-12--12--------|-12-------------------|
|--------------15-13--|-----15-13--13-12-----|
|---------------------|------------------14--|
|---------------------|----------------------|
|---------------------|----------------------|
|---------------------|----------------------|


  F5       G5            A5                 C5                      G5
   H        H             W                  H                       H
|----------------------|----------------||--------------------------------------------------|
|----------------------|----------------||o-------------------------------------------------|
|----------------------|--2-------------||---5----------------------------------------------|
|--3--------5----------|--2-------------||---5-----------------------5----------------------|
|--3--------5----------|--0-------------||o--3-----------------------5----------------------|
|--1--------3----------|----------------||---------------------------3----------------------|
|
|                               ~~~
|  H        E.  E.  E     E  E  H.           S  S  S  S  S  S  S  S  S  S  S  S  S  S  S  S
|----------------------|----------------||--15-12-12-15-12-12-15-15-------------------------|
|-15b17----15--13--12--|----12-13-------||o-------------------------15-12-12-15-12-12-15-15-|
|----------------------|-14-------------||--------------------------------------------------|
|----------------------|----------------||--------------------------------------------------|
|----------------------|----------------||o-------------------------------------------------|
|----------------------|----------------||--------------------------------------------------|


  Bb5                     F5
   H                       H
|-----------------------------------------------------||
|----------------------------------------------------o||
|--3--------------------------------------------------||
|--3-----------------------3--------------------------||
|--1-----------------------3-------------------------o||
|--------------------------1--------------------------||
|
|  S  S  S  S  S  S  S  S  S  S  S  S  S  S  S  S
|-13-10-10-13-10-10-13-13-----------------------------||
|-------------------------13-10-10-13-10-10-13-13----o||
|-----------------------------------------------------||
|-----------------------------------------------------||
|----------------------------------------------------o||
|-----------------------------------------------------||


  E=172
  E5                     C5
   W                      W
|----------------------|---------------------------------|
|----------------------|---------------------------------|
|----------------------|--5------------------------------|
|--2-------------------|--5------------------------------|
|--2-------------------|--3------------------------------|
|--0-------------------|---------------------------------|
|
|  Q      +H      E  E    E  S  S  +Q    Q      +E.  +S
|-17b19--(17)----20-19-|-15-17-15-(15)--17b19--(17)-(17)-|
|----------------------|---------------------------------|
|----------------------|---------------------------------|
|----------------------|---------------------------------|
|----------------------|---------------------------------|
|----------------------|---------------------------------|


  E5                    C5
   W                     W
|---------------------|------------------|
|---------------------|------------------|
|---------------------|--5---------------|
|--2------------------|--5---------------|
|--2------------------|--3---------------|
|--0------------------|------------------|
|
|          ~~~~~~~                  ~~
|  E.  E.  E  +H         E.  E.  E  H
|-17--15--------------|------------------|
|---------15-(15)-----|-18--17--15-------|
|---------------------|------------15----|
|---------------------|------------------|
|---------------------|------------------|
|---------------------|------------------|


  Q=172
  A5                D5                   E5
   E    S S S S S S  E  S  S  S S  S S    E  S S  S S S S S S S S  S S S S
|--------------------------------------|-----------------------------------|
|--------------------------------------|-----------------------------------|
|--2-----------------7-----------------|-----------------------------------|
|--2-----------------7-----------------|--2--------------------------------|
|--0----0-0-0-0-0-0--5--5--5--5-5--5-5-|--2--------------------------------|
|--------------------------------------|--0--0-0--0-0-0-0-0-0-0-0--0-0-0-0-|
|
|  H                 E.    E.      E      E  E    H                Q
|-------------------17----15------14---|----14---15------------------------|
|-22b24--------------------------------|-17-----------------------15-------|
|--------------------------------------|-----------------------------------|
|--------------------------------------|-----------------------------------|
|--------------------------------------|-----------------------------------|
|--------------------------------------|-----------------------------------|


  C5                                   D5
   E  S S S S  S  S S S S S  S S S S    E  S S S S  S  S S S S S  S S S S
|------------------------------------|--------------------------------------|
|------------------------------------|--------------------------------------|
|--5---------------------------------|--7-----------------------------------|
|--5---------------------------------|--7-----------------------------------|
|--3--3-3-3-3--3--3-3-3-3-3--3-3-3-3-|--5--5-5-5-5--5--5-5-5-5-5--5-5-5-5---|
|------------------------------------|--------------------------------------|
|
|  Q.          Q.            Q          Q.          Q.            Q
|-15----------14---------------------|---------------------------14---------|
|---------------------------17-------|-15----------17-----------------------|
|------------------------------------|--------------------------------------|
|------------------------------------|--------------------------------------|
|------------------------------------|--------------------------------------|
|------------------------------------|--------------------------------------|


  A5                D5                   E5
   E    S S S S S S  E  S  S  S S  S S    E  S S  S S S S S S S S  S S S S
|--------------------------------------|-----------------------------------|
|--------------------------------------|-----------------------------------|
|--2-----------------7-----------------|-----------------------------------|
|--2-----------------7-----------------|--2--------------------------------|
|--0----0-0-0-0-0-0--5--5--5--5-5--5-5-|--2--------------------------------|
|--------------------------------------|--0--0-0--0-0-0-0-0-0-0-0--0-0-0-0-|
|
|  H                 E.    E.      E      E  E    H                Q
|-------------------17----15------14---|----14---15------------------------|
|-22b24--------------------------------|-17-----------------------15-------|
|--------------------------------------|-----------------------------------|
|--------------------------------------|-----------------------------------|
|--------------------------------------|-----------------------------------|
|--------------------------------------|-----------------------------------|


  A5                                   Cb5
   E  S S S S  S  S S S S S  S S S S    E  S S S S  S  S S S S S  S S S S
|------------------------------------|--------------------------------------|
|------------------------------------|--------------------------------------|
|--2---------------------------------|--4-----------------------------------|
|--2---------------------------------|--4-----------------------------------|
|--0--0-0-0-0--0--0-0-0-0-0--0-0-0-0-|--2--2-2-2-2--2--2-2-2-2-2--2-2-2-2---|
|------------------------------------|--------------------------------------|
|
|  Q.          Q.            Q          Q.          Q.            Q
|-15----------14---------------------|---------------------------14---------|
|---------------------------17-------|-16----------17-----------------------|
|------------------------------------|--------------------------------------|
|------------------------------------|--------------------------------------|
|------------------------------------|--------------------------------------|
|------------------------------------|--------------------------------------|


 Verse4
  E5                               C5               D5
   E S S S S S S S S S S S S S S     E  S S S S S S   E   S S S S S S
|--------------------------------|------------------------------------|
|--------------------------------|------------------------------------|
|--------------------------------|---5----------------7---------------|
|--2-----------------------------|---5----------------7---------------|
|--2-----------------------------|---3--3-3-3-3-3-3---5---5-5-5-5-5-5-|
|--0-0-0-0-0-0-0-0-0-0-0-0-0-0-0-|------------------------------------|
|
|  ~~
|  W                                +H               +Q       Q
|--------------------------------|------------------------------------|
|-17-----------------------------|-(17)-------------(17)\-------------|
|--------------------------------|------------------------------------|
|--------------------------------|------------------------------------|
|--------------------------------|------------------------------------|
|--------------------------------|------------------------------------|


  D5                        Cb5
  E S S E S S E S S E S S   E S S E S S E S S E S S
|-------------------------|----------------------------|
|-------------------------|----------------------------|
|-7-----------------------|-4--------------------------|
|-7-----7-----7-----7-----|-4-----4-----4-----4--------|
|-5-5-5-5-5-5-5-5-5-5-5-5-|-2-2-2-2-2-2-2-2-2-2-2-2----|
|-------------------------|----------------------------|
|
| W                         W
|-------------------------|----------------------------|
|-------------------------|----------------------------|
|-------------------------|----------------------------|
|-------------------------|----------------------------|
|-------------------------|----------------------------|
|-------------------------|----------------------------|


  E5                              C5            D5
  E S S S S S S S S S S S S S S   E S S S S S S E S S S S S S
|-------------------------------|-----------------------------|
|-------------------------------|-----------------------------|
|-------------------------------|-5-------------7-------------|
|-2-----------------------------|-5-------------7-------------|
|-2-----------------------------|-3-3-3-3-3-3-3-5-5-5-5-5-5-5-|
|-0-0-0-0-0-0-0-0-0-0-0-0-0-0-0-|-----------------------------|


  D5                              Cb5
  E S S S S S S S S S S S S S S   E S S S S S S S S S S S S S S
|-------------------------------|---------------------------------|
|-------------------------------|---------------------------------|
|-7-----------------------------|-4-------------------------------|
|-7-----------------------------|-4-------------------------------|
|-5-5-5-5-5-5-5-5-5-5-5-5-5-5-5-|-2-2-2-2-2-2-2-2-2-2-2-2-2-2-2---|
|-------------------------------|---------------------------------|


  E5                              A5
  E S S S S S S S S S S S S S S   E S S S S S S S S S S S S S S
|-------------------------------|-------------------------------|
|-------------------------------|-------------------------------|
|-------------------------------|-2-----------------------------|
|-2-----------------------------|-2-----------------------------|
|-2-----------------------------|-0-0-0-0-0-0-0-0-0-0-0-0-0-0-0-|
|-0-0-0-0-0-0-0-0-0-0-0-0-0-0-0-|-------------------------------|
|
| Gtr II
| W                               W
|-------------------------------|-------------------------------|
|-------------------------------|-------------------------------|
|-------------------------------|-------------------------------|
|-------------------------------|-------------------------------|
|-------------------------------|-------------------------------|
|-------------------------------|-------------------------------|


  Cb5                                   Cb5
  E S S S S S S S S S S   S  S   S  S     E  S S S S S S S S S S   S   S S S
|-------------------------------------|---------------------------------------|
|-------------------------------------|---------------------------------------|
|-4-----------------------------------|---4-----------------------------------|
|-4-----------------------------------|---4-----------------------------------|
|-2-2-2-2-2-2-2-2-2-2-2---2--2---2--2-|---2--2-2-2-2-2-2-2-2-2-2---2---2-2-2--|
|-------------------------------------|---------------------------------------|
|
|                                         ~~~~
| H             Q         E      E        H.                      +Q
|-----------------------<12>----------|---------------------------------------|
|------------------------------<12>---|---------------------------------------|
|-------------------------------------|-<12>---------------------(12)\--------|
|-------------------------------------|---------------------------------------|
|-------------------------------------|---------------------------------------|
|-------------------------------------|---------------------------------------|


  E5                              C5
  E S S S S S S S S S S S S S S   E S S S S S S S S S S S S S S
|-------------------------------|-------------------------------|
|-------------------------------|-------------------------------|
|-------------------------------|-5-----------------------------|
|-2-----------------------------|-5-----------------------------|
|-2-----------------------------|-3-3-3-3-3-3-3-3-3-3-3-3-3-3-3-|
|-0-0-0-0-0-0-0-0-0-0-0-0-0-0-0-|-------------------------------|


  A5                              Cb5
  E S S S S S S S S S S S S S S   E S S S S S S S S S S S S S S
|-------------------------------|--------------------------------|
|-------------------------------|--------------------------------|
|-2-----------------------------|-4------------------------------|
|-2-----------------------------|-4------------------------------|
|-0-0-0-0-0-0-0-0-0-0-0-0-0-0-0-|-2-2-2-2-2-2-2-2-2-2-2-2-2-2-2--|
|-------------------------------|--------------------------------|


  D5                      A5         Cb5
  W          +W           W          W
|----------|------------|----------|------|
|----------|------------|----------|------|
|-7--------|-(7)--------|-2--------|-4----|
|-7--------|-(7)--------|-2--------|-4----|
|-5--------|-(5)--------|-0--------|-2----|
|----------|------------|----------|------|


 Lead4
   E  S S  S S  S S  S S S S  S S S S    E S S S S S S  S S S S S S S S
|-------------------------------------|---------------------------------|
|-------------------------------------|---------------------------------|
|-------------------------------------|--2------------------------------|
|--2----------------------------------|--2------------------------------|
|--2----------------------------------|--0-0-0-0-0-0-0--0-0-0-0-0-0-0-0-|
|--0--0-0--0-0--0-0--0-0-0-0--0-0-0-0-|---------------------------------|
|
| Gtr II
|  E  E    E    E    Q        Q          H              H
|-------------------------------------|---------------------------------|
|-------------------12-------15-------|-14-------------13---------------|
|-12-11---12---14---------------------|---------------------------------|
|-------------------------------------|---------------------------------|
|-------------------------------------|---------------------------------|
|-------------------------------------|---------------------------------|
|
| Gtr III
|  E  E    E    E    H                   E E   E   E    H
|-------------------------------------|---------------------------------|
|-------------------------------------|---------------------------------|
|-------------------------------------|------------4----5---------------|
|---------------4----5----------------|--7-6---7------------------------|
|--7--6----7--------------------------|---------------------------------|
|-------------------------------------|---------------------------------|


   E    S S  S S  S S  E  S S S S  S S    E S S  S  S  S  S  E S S  S S  S S
|--------------------------------------|----------------------------------------|
|--------------------------------------|----------------------------------------|
|--------------------------------------|----------------------------------------|
|--5-------------------4---------------|--7------------------5------------------|
|--3----3-3--3-3--3-3--2--2-2-2-2--2-2-|--5-5-5--5--5--5--5--3-3-3--3-3--3-3----|
|--------------------------------------|----------------------------------------|
|
|  Q         E    E    E  Q        E      Q      S  S  S  S  Q      E    E
|--------------------------------------|----------------------------------------|
|-15b17-----15---13---12-13-------15---|-15-----13-15-13-12---------------------|
|--------------------------------------|--------------------14-----12---11------|
|--------------------------------------|----------------------------------------|
|--------------------------------------|----------------------------------------|
|--------------------------------------|----------------------------------------|
|
|  Q         E    E    E  Q        E      Q      S  S  S  S  Q      E    E
|--------------------------------------|----------------------------------------|
|--------------------------------------|----------------------------------------|
|--------------------------------------|----------------------------------------|
|-14--------12---10----9-10-------12---|-12-----10-12-10--9---------------------|
|--------------------------------------|--------------------12-----10----9------|
|--------------------------------------|----------------------------------------|


  F5                                   A5
   E S S S S S S  S S  S S  S S  S S    E  S    S     S S  S S  S S S S S S S S
|------------------------------------|------------------------------------------|
|------------------------------------|------------------------------------------|
|------------------------------------|--2---------------------------------------|
|--3---------------------------------|--2---------------------------------------|
|--3---------------------------------|--0--0----0-----0-0--0-0--0-0-0-0-0-0-0-0-|
|--1-1-1-1-1-1-1--1-1--1-1--1-1--1-1-|------------------------------------------|
|
|                                          |---3---|
|  H              E    E    E    E      E  S  S    S  E    E    H
|------------------------------------|------------------------------------------|
|-------------------------------12---|-13-12-13---12------12--------------------|
|---------------------12---14--------|---------------14--------14---------------|
|-15-------------15------------------|------------------------------------------|
|------------------------------------|------------------------------------------|
|------------------------------------|------------------------------------------|
|
|                                          |---3---|
|  H              E    E    E    E      E  S  S    S  E    E    H
|------------------------------------|------------------------------------------|
|--------------------------13---15---|-17-15-17---15-13---15---13---------------|
|-14-------------14---16-------------|------------------------------------------|
|------------------------------------|------------------------------------------|
|------------------------------------|------------------------------------------|
|------------------------------------|------------------------------------------|


  G5                                                    Bb5
   E    S       S S S       S S  S    S S S S S  S  S    E S S S S S S S S S S S S S S
|-----------------------------------------------------|-----------------------------------|
|-----------------------------------------------------|-----------------------------------|
|-----------------------------------------------------|--3--------------------------------|
|--5--------------------------------------------------|--3--------------------------------|
|--5--------------------------------------------------|--1-1-1-1-1-1-1-1-1-1-1-1-1-1-1----|
|--3----3-------3-3-3-------3-3--3----3-3-3-3-3--3--3-|-----------------------------------|
|
|                                                        ~~
|  |---------3---------|
|  Q       Q           Q         Q.              S  S    W
|-15b17r==15b17r======15--------15b17r==========13-12-|-13--------------------------------|
|-----------------------------------------------------|-----------------------------------|
|-----------------------------------------------------|-----------------------------------|
|-----------------------------------------------------|-----------------------------------|
|-----------------------------------------------------|-----------------------------------|
|-----------------------------------------------------|-----------------------------------|
|
|                                                        ~~
|  |---------3---------|
|  Q       Q           Q         Q.              S  S    W
|-----------------------------------------------------|-----------------------------------|
|-15b17r==15b17r======15b17r====15b17r==========15-13-|-15--------------------------------|
|-----------------------------------------------------|-----------------------------------|
|-----------------------------------------------------|-----------------------------------|
|-----------------------------------------------------|-----------------------------------|
|-----------------------------------------------------|-----------------------------------|


 Bridge
  C5                              D5
  E S S S S S S S S S S S S S S   E S S S S S S S S S S S S S S
|-------------------------------|-------------------------------|
|-------------------------------|-------------------------------|
|-5-----------------------------|-7-----------------------------|
|-5-----------------------------|-7-----------------------------|
|-3-3-3-3-3-3-3-3-3-3-3-3-3-3-3-|-5-5-5-5-5-5-5-5-5-5-5-5-5-5-5-|
|-------------------------------|-------------------------------|


  Ab5                             Bb5
  E S S S S S S S S S S S S S S   E S S S S S S S S S S S S S S
|-------------------------------|--------------------------------|
|-------------------------------|--------------------------------|
|-------------------------------|-3------------------------------|
|-6-----------------------------|-3------------------------------|
|-6-----------------------------|-1-1-1-1-1-1-1-1-1-1-1-1-1-1-1--|
|-4-4-4-4-4-4-4-4-4-4-4-4-4-4-4-|--------------------------------|


  C5                              D5
  E S S S S S S S S S S S S S S   E S S S S S S S S S S S S S S
|-------------------------------|-------------------------------|
|-------------------------------|-------------------------------|
|-5-----------------------------|-7-----------------------------|
|-5-----------------------------|-7-----------------------------|
|-3-3-3-3-3-3-3-3-3-3-3-3-3-3-3-|-5-5-5-5-5-5-5-5-5-5-5-5-5-5-5-|
|-------------------------------|-------------------------------|


  Bb5                             G5
  E S S S S S S S S S S S S S S   E S S S S S S S S S S S S S S
|-------------------------------|--------------------------------|
|-------------------------------|--------------------------------|
|-3-----------------------------|--------------------------------|
|-3-----------------------------|-5------------------------------|
|-1-1-1-1-1-1-1-1-1-1-1-1-1-1-1-|-5------------------------------|
|-------------------------------|-3-3-3-3-3-3-3-3-3-3-3-3-3-3-3--|


  E5   D5   C5       Cb5  G5 Cb5
  Q.   Q.   Q    +E  Q.   Q  Q
|--------------|----------------|
|--------------|----------------|
|-9----7----5--|-(5)-4-------4--|
|-9----7----5--|-(5)-4----5--4--|
|-7----5----3--|-(3)-2----5--2--|
|--------------|----------3-----|


    F5   G5     A5         F5   C5     E5
    H    H      W          H    H      W
||------------|----------|-----------|-------||
||o-----------|----------|-----------|------o||
||------------|-2--------|------5----|-------||
||--3----5----|-2--------|-3----5----|-2-----||
||o-3----5----|-0--------|-3----3----|-2----o||
||--1----3----|----------|-1---------|-0-----||


  Bb5                             G5
  E S S S S S S S S S S S S S S   E S S S S S S S S S S S S S S
|-------------------------------|-------------------------------|
|-------------------------------|-------------------------------|
|-3-----------------------------|-------------------------------|
|-3-----------------------------|-5-----------------------------|
|-1-1-1-1-1-1-1-1-1-1-1-1-1-1-1-|-5-----------------------------|
|-------------------------------|-3-3-3-3-3-3-3-3-3-3-3-3-3-3-3-|


  C5                              F5                              Bb5
  E S S S S S S S S S S S S S S   E S S S S S S S S S S S S S S   W
|-------------------------------|-------------------------------|------|
|-------------------------------|-------------------------------|------|
|-5-----------------------------|-------------------------------|-3----|
|-5-----------------------------|-3-----------------------------|-3----|
|-3-3-3-3-3-3-3-3-3-3-3-3-3-3-3-|-3-----------------------------|-1----|
|-------------------------------|-1-1-1-1-1-1-1-1-1-1-1-1-1-1-1-|------|


   Chorus
    F5   G5     A5         F5   C5     E5           G5         F5
    H    H      W          H    H      W            W          W
||------------|----------|-----------|-----------||----------|------|
||o-----------|----------|-----------|----------o||----------|------|
||------------|-2--------|------5----|-----------||----------|------|
||--3----5----|-2--------|-3----5----|-2---------||-5--------|-3----|
||o-3----5----|-0--------|-3----3----|-2--------o||-5--------|-3----|
||--1----3----|----------|-1---------|-0---------||-3--------|-1----|


  A5    Ab5   A5    Cb5     C5                   D5
  Gtr I
  E S S E S S E S S E S S    E  S  S  S  S  S  S  E  S  S  S  S  S  S
|-------------------------|-------------------------------------------|
|-------------------------|-------------------------------------------|
|-------------------------|-------------------------------------------|
|-------------------------|-------------------------------------------|
|-7-----6-----7-----9-----|-10-------------------12-------------------|
|-5-5-5-4-4-4-5-5-5-7-7-7-|--8--8--8--8--8--8--8-10-10-10-10-10-10-10-|
|
| Gtr II
| E S S E S S E S S E S S    E  S  S  S  S  S  S  E  S  S  S  S  S  S
|-------------------------|-------------------------------------------|
|-------------------------|-------------------------------------------|
|-------------------------|-------------------------------------------|
|-7-7-7-6-6-6-7-7-7-9-9-9-|-10-10-10-10-10-10-10-12-12-12-12-12-12-12-|
|-------------------------|-------------------------------------------|
|-------------------------|-------------------------------------------|


  Cb5                           Ab5
  E S S S S S S E S S S S S S   E S S S S S S E S S S S S S
|-----------------------------|-------------------------------|
|-----------------------------|-------------------------------|
|-----------------------------|-------------------------------|
|-----------------------------|-------------------------------|
|-9-------------9-------------|-6-------------6---------------|
|-7-7-7-7-7-7-7-7-7-7-7-7-7-7-|-4-4-4-4-4-4-4-4-4-4-4-4-4-4---|
|
| E S S S S S S E S S S S S S   E S S S S S S E S S S S S S
|-----------------------------|-------------------------------|
|-----------------------------|-------------------------------|
|-----------------------------|-------------------------------|
|-9-9-9-9-9-9-9-9-9-9-9-9-9-9-|-6-6-6-6-6-6-6-6-6-6-6-6-6-6---|
|-----------------------------|-------------------------------|
|-----------------------------|-------------------------------|


  A5    Ab5   A5    Cb5     C5                   D5
  E S S E S S E S S E S S    E  S  S  S  S  S  S  E  S  S  S  S  S  S
|-------------------------|-------------------------------------------|
|-------------------------|-------------------------------------------|
|-------------------------|-------------------------------------------|
|-------------------------|-------------------------------------------|
|-7-----6-----7-----9-----|-10-------------------12-------------------|
|-5-5-5-4-4-4-5-5-5-7-7-7-|--8--8--8--8--8--8--8-10-10-10-10-10-10-10-|
|
| E S S E S S E S S E S S    E  S  S  S  S  S  S  E  S  S  S  S  S  S
|-------------------------|-------------------------------------------|
|-------------------------|-------------------------------------------|
|-------------------------|-------------------------------------------|
|-7-7-7-6-6-6-7-7-7-9-9-9-|-10-10-10-10-10-10-10-12-12-12-12-12-12-12-|
|-------------------------|-------------------------------------------|
|-------------------------|-------------------------------------------|


  Eb5                           E5
  E S S S S S S E S S S S S S   E S S S S S S E S S S S S S
|-----------------------------|-------------------------------|
|-----------------------------|-------------------------------|
|-----------------------------|-------------------------------|
|-8-------------8-------------|-9-------------9---------------|
|-6-6-6-6-6-6-6-6-6-6-6-6-6-6-|-7-7-7-7-7-7-7-7-7-7-7-7-7-7---|
|-----------------------------|-------------------------------|
|
| E S S S S S S E S S S S S S   E S S S S S S E S S S S S S
|-----------------------------|-------------------------------|
|-----------------------------|-------------------------------|
|-8-8-8-8-8-8-8-8-8-8-8-8-8-8-|-9-9-9-9-9-9-9-9-9-9-9-9-9-9---|
|-----------------------------|-------------------------------|
|-----------------------------|-------------------------------|
|-----------------------------|-------------------------------|


  A5     Ab5    A5     Cb5      C5                   D5
   E S S  E S S  E S S  E S S    E  S  S  S  S  S  S  E  S  S  S  S  S  S
|-----------------------------|-------------------------------------------|
|-----------------------------|-------------------------------------------|
|-----------------------------|-------------------------------------------|
|-----------------------------|-------------------------------------------|
|--7------6------7------9-----|-10-------------------12-------------------|
|--5-5-5--4-4-4--5-5-5--7-7-7-|--8--8--8--8--8--8--8-10-10-10-10-10-10-10-|
|
|  E S S  E S S  E S S  E S S    E  S  S  S  S  S  S  E  S  S  S  S  S  S
|-----------------------------|-------------------------------------------|
|-----------------------------|-------------------------------------------|
|-----------------------------|-------------------------------------------|
|--7-7-7--6-6-6--7-7-7--9-9-9-|-10-10-10-10-10-10-10-12-12-12-12-12-12-12-|
|-----------------------------|-------------------------------------------|
|-----------------------------|-------------------------------------------|
|
| Gtr III
|                                ~~~~~~~~~~~~~~~~~~~~~~~~~~~~~~~~~~~~~~~~~~
|  Q      Q      Q      Q        H                    H
|-----------------------------|-------------------------------------------|
|----------------------12-----|-13-------------------15-------------------|
|-14-----13-----14------------|-------------------------------------------|
|-----------------------------|-------------------------------------------|
|-----------------------------|-------------------------------------------|
|-----------------------------|-------------------------------------------|


  Cb5                            Ab5
   E S S S S S S E S S S S S S    E S S S S S S E S S S S S S
|------------------------------|--------------------------------|
|------------------------------|--------------------------------|
|------------------------------|--------------------------------|
|------------------------------|--------------------------------|
|--9-------------9-------------|--6-------------6---------------|
|--7-7-7-7-7-7-7-7-7-7-7-7-7-7-|--4-4-4-4-4-4-4-4-4-4-4-4-4-4---|
|
|  E S S S S S S E S S S S S S    E S S S S S S E S S S S S S
|------------------------------|--------------------------------|
|------------------------------|--------------------------------|
|------------------------------|--------------------------------|
|--9-9-9-9-9-9-9-9-9-9-9-9-9-9-|--6-6-6-6-6-6-6-6-6-6-6-6-6-6---|
|------------------------------|--------------------------------|
|------------------------------|--------------------------------|
|
|~~~~~~~~~~~~~~~~~~~~~~~~~~~~~~~~~~~
|  W                              W
|------------------------------|--------------------------------|
|-12---------------------------|--------------------------------|
|------------------------------|-13-----------------------------|
|------------------------------|--------------------------------|
|------------------------------|--------------------------------|
|------------------------------|--------------------------------|


  A5     Ab5    A5     Cb5      C5                   D5
   E S S  E S S  E S S  E S S    E  S  S  S  S  S  S  E  S  S  S  S  S  S
|-----------------------------|-------------------------------------------|
|-----------------------------|-------------------------------------------|
|-----------------------------|-------------------------------------------|
|-----------------------------|-------------------------------------------|
|--7------6------7------9-----|-10-------------------12-------------------|
|--5-5-5--4-4-4--5-5-5--7-7-7-|--8--8--8--8--8--8--8-10-10-10-10-10-10-10-|
|
|  E S S  E S S  E S S  E S S    E  S  S  S  S  S  S  E  S  S  S  S  S  S
|-----------------------------|-------------------------------------------|
|-----------------------------|-------------------------------------------|
|-----------------------------|-------------------------------------------|
|--7-7-7--6-6-6--7-7-7--9-9-9-|-10-10-10-10-10-10-10-12-12-12-12-12-12-12-|
|-----------------------------|-------------------------------------------|
|-----------------------------|-------------------------------------------|
|
|                                ~~~~~~~~~~~~~~~~~~~~~~~~~~~~~~~~~~~~~~~~~~
|  Q      Q      Q      Q        H                    H
|-----------------------------|-------------------------------------------|
|----------------------12-----|-13-------------------15-------------------|
|-14-----13-----14------------|-------------------------------------------|
|-----------------------------|-------------------------------------------|
|-----------------------------|-------------------------------------------|
|-----------------------------|-------------------------------------------|


  Eb5                            E5
   E S S S S S S E S S S S S S    E S S S S S S E S S S S S S
|------------------------------|--------------------------------|
|------------------------------|--------------------------------|
|------------------------------|--------------------------------|
|--8-------------8-------------|--9-------------9---------------|
|--6-6-6-6-6-6-6-6-6-6-6-6-6-6-|--7-7-7-7-7-7-7-7-7-7-7-7-7-7---|
|------------------------------|--------------------------------|
|
|  E S S S S S S E S S S S S S    E S S S S S S E S S S S S S
|------------------------------|--------------------------------|
|------------------------------|--------------------------------|
|--8-8-8-8-8-8-8-8-8-8-8-8-8-8-|--9-9-9-9-9-9-9-9-9-9-9-9-9-9---|
|------------------------------|--------------------------------|
|------------------------------|--------------------------------|
|------------------------------|--------------------------------|
|
|~~~~~~~~~~~~~~~~~~~~~~~~~~~~~~~~~~~
|  W                              W
|-11---------------------------|-12-----------------------------|
|------------------------------|--------------------------------|
|------------------------------|--------------------------------|
|------------------------------|--------------------------------|
|------------------------------|--------------------------------|
|------------------------------|--------------------------------|


 Outro
  E=172
  Am             F                  Em
  Gtr IV
   S  S S E S  E  S  S S  E  S  E    S S S E S E S S S E S E
|---------0-----------------------|--------------------------|
|-----------1-------------1-------|--------0-----1-----0-----|
|-------2------2-------2-----2----|------0---0-----0-----0---|
|-----2--------------3----------3-|----2-------2-----2-----2-|
|--0------------------------------|--------------------------|
|-----------------1---------------|--0-----------------------|
|
| Gtr II
|  Q.          E  E.      E.    E    W
|-12----------12-13------15----13-|-12-----------------------|
|---------------------------------|--------------------------|
|---------------------------------|--------------------------|
|---------------------------------|--------------------------|
|---------------------------------|--------------------------|
|---------------------------------|--------------------------|


  Am             F                  Em
   S  S S E S  E  S  S S  E  S  E    S  S S E S  E     S S S E S E
|---------0-----------------------|--------------------------------|
|-----------1-------------1-------|---------0----------------0-----|
|-------2------2-------2-----2----|-------0---0------------0---0---|
|-----2--------------3----------3-|-----2--------2-------2-------2-|
|--0------------------------------|--------------------------------|
|-----------------1---------------|--0-----------------0-----------|
|
|  Q.          E  E.      E.    E    Q.          S  S  H
|-12----------12-13------15----13-|-12-----------------------------|
|---------------------------------|-------------15-13-12-----------|
|---------------------------------|--------------------------------|
|---------------------------------|--------------------------------|
|---------------------------------|--------------------------------|
|---------------------------------|--------------------------------|


   S  S S E S  E  S  S S  E  S  E
|---------0-----------------------|
|-----------1-------------1-------|
|-------2------2-------2-----2----|
|-----2--------------3----------3-|
|--0------------------------------|
|-----------------1---------------|
|
|  Q.          E  E.      E.    E
|-12----------12-13------15----13-|
|---------------------------------|
|---------------------------------|
|---------------------------------|
|---------------------------------|
|---------------------------------|


   S     S S E S E  S  S S E S  E
|---------------------------------------------|
|------------0------1------0------------------|
|----------0---0-------0-----0----------------|
|--------2-------2-------2------2-------------|
|---------------------------------------------|
|--0------------------------------------------|
|
|                                  |--3--|
|  H                Q.          T  T  T  T  T
|-12tr13-----------12-------------------------|
|------------------------------15-13-15-13-12-|
|---------------------------------------------|
|---------------------------------------------|
|---------------------------------------------|
|---------------------------------------------|


                                  E=172        H.=H                E=90
  Am             F                  Em                               Am
   S  S S E S  E  S  S S  E  S  E    S S S E S E  E  E  S  S  S  S    W
|---------0-----------------------|---------------0----------------|-^0----*|
|-----------1-------------1-------|--------0---------3--1--3--1--0-|-^1----*|
|-------2------2-------2-----2----|------0---0---------------------|-^2----*|
|-----2--------------3----------3-|----2-------2-------------------|-^2----*|
|--0------------------------------|--------------------------------|-^0----*|
|-----------------1---------------|--0-----------------------------|-------*|
|
|  Q.          E  E.      E.    E    H            E  E  S  S  S  S    W
|---------------------------------|--------------12----------------|-------*|
|-------------12-13------15----13-|-12--------------15-13-15-13-12-|-------*|
|-14------------------------------|--------------------------------|-14----*|
|---------------------------------|--------------------------------|-------*|
|---------------------------------|--------------------------------|-------*|
|---------------------------------|--------------------------------|-------*|




--------------------------------------------------------------------------------


Duration Legend
---------------
W - whole; H - half; Q - quarter; E - 8th; S - 16th; T - 32nd; X - 64th; a - acciaccatura
+ - note tied to previous; . - note dotted; .. - note double dotted
Uncapitalized letters represent notes that are staccato (1/2 duration)
Irregular groupings are notated above the duration line
Duration letters will always appear directly above the note/fret number it represents the
duration for.  Duration letters with no fret number below them represent rests.  Multi-
bar rests are notated in the form Wxn, where n is the number of bars to rest for.  Low
melody durations appear below the staff

Tablature Legend
----------------
 h   - hammer-on
 p   - pull-off
 b   - bend
 pb  - pre-bend
 r   - bend release (if no number after the r, then release immediately)
 /\  - slide into or out of (from/to "nowhere")
 s   - legato slide
 S   - shift slide
 - natural harmonic
[n]  - artificial harmonic
n(n) - tapped harmonic
 ~   - vibrato
 tr  - trill
 T   - tap
 TP  - trem. picking
 PM  - palm muting
\n/  - tremolo bar dip; n = amount to dip
 \n  - tremolo bar down
 n/  - tremolo bar up
/n\  - tremolo bar inverted dip
 =   - hold bend; also acts as connecting device for hammers/pulls
 <> - volume swell (louder/softer)
 x   - on rhythm slash represents muted slash
 o   - on rhythm slash represents single note slash

Misc Legend
-----------
 |  - bar
||  - double bar
||o - repeat start
o|| - repeat end
*|  - double bar (ending)
 :  - bar (freetime)
 $  - Segno
 &  - Coda
Tempo markers -  = BPM(8/16=s8/s16), where s8 = swing 8ths, s16 = swing 16ths


            
            
Suggest correction
Creating personal tab
Creating personal tab
You can edit any tab online and save it as your Personal.

You can edit, replace or remove any tab part or add personal notes – all changes will be seen only by you.

Personal tabs can be accessed anytime from any device, even offline.
Learn more »
Give kudos to tab author, rate the tab!
1 2 3 4 5
comments
print report bad tab
guest
You may want to rate the tab now too:
select rating
Wanna post a correction for this tab? Suggest correction