Oops, an error
Loading. Please wait.

When Sorrow Sang tab

version 1
version 1

Whole song

Interactive

979 views 1 this week
2 commentsread comments
1 2 3 4 5
3 more votes to show rating
add to favorites
×
Save as Personal and add changes to this tab that will be seen only by you. Learn more ›
×
You can save this tab as Personal to edit and correct it or add notes. All changes will be seen only by you. Learn more »
launch autoscroll
font size
0
reset
how to read this tab
guitar tuner
edit
Autoscroll
slow
fast
+/-
esc
set tempo
stop
#----------------------------------PLEASE NOTE---------------------------------#
#This file is the author's own work and represents their interpretation of the #
#song. You may only use this file for private study, scholarship, or research. #
#------------------------------------------------------------------------------#

WHEN SORROW SANG
As recorded by Blind Guardian
(From the 1998 Album NIGHTFALL IN MIDDLE-EARTH)


Transcribed by Fear Fex

 Words by Kürsch Music by Olbrich & Kürsch

 

Gtr I (A E A D G B E) - 'Guitar1'
Gtr II (E A D G B E) - 'Guitar2'
Gtr III (E A D G B E) - 'Guitar3'


 Intro
  Q=185
  N.C.
 4/4
  Gtr I
                                        |-3-|
  Q  S S S S Q  S S S S   Q  S S S S Q  E E E   Q  S S S S Q  S S S S
|-----------------------|---------------------|------------------------|
|-----------------------|---------------------|------------------------|
|-----------------------|---------------------|------------------------|
|-----------------------|---------------------|------------4-----------|
|-6----------9----------|-5----------6--8-6-5-|-6----------------------|
|-----------------------|---------------------|------------------------|
|----6-6-6-6----6-6-6-6-|----6-6-6-6----------|----6-6-6-6----6-6-6-6--|
|
| Gtr II
| W                       W                     Q  S S S S Q  S S S S
|-----------------------|---------------------|------------------------|
|-----------------------|---------------------|------------------------|
|-----------------------|---------------------|------------------------|
|-----------------------|---------------------|------------------------|
|-----------------------|---------------------|----6-6-6-6----6-6-6-6--|
|-----------------------|---------------------|------------------------|
|
| Gtr III
| W                       W                     Q  S S S S Q  S S S S
|-----------------------|---------------------|------------------------|
|-----------------------|---------------------|------------7-----------|
|-----------------------|---------------------|----8-8-8-8----8-8-8-8--|
|-----------------------|---------------------|------------------------|
|-----------------------|---------------------|-6----------------------|
|-----------------------|---------------------|------------------------|


  N.C.
                 |---3---|                                             |-3-|
  Q  S S S S Q   E   E   E     Q  S S S S  Q  S S S S   Q  S S S S Q   E E E
|----------------------------|------------------------|----------------------|
|----------------------------|------------------------|----------------------|
|----------------------------|------------------------|----------------------|
|----------------------------|-------------4----------|----------------------|
|-5----------6---8---6---5---|-6----------------------|-5----------6---8-6-5-|
|----------------------------|------------------------|----------------------|
|----6-6-6-6-----------------|----6-6-6-6-----6-6-6-6-|----6-6-6-6-----------|
|
|                                                                      |-3-|
| Q  S S S S Q   S S   S   S   Q  S S S S  Q  S S S S   Q  S S S S Q   E E E
|----------------------------|------------------------|----------------------|
|----------------------------|------------------------|----------------------|
|----------------------------|------------------------|----------------------|
|----------------------------|-4-----------8----------|------------4---6-4-3-|
|----6-6-6-6-----6-6---6---6-|----6-6-6-6-----6-6-6-6-|-8--6-6-6-6-----------|
|----------------------------|------------------------|----------------------|
|
|                |---3---|                                             |-3-|
| Q  S S S S Q   E   E   E     Q  S S S S  Q  S S S S   Q  S S S S Q   E E E
|----------------------------|------------------------|----------------------|
|----------------------------|-7----------11----------|-6----------7---9-7-6-|
|-7--8-8-8-8-8--10---8---7---|-8--8-8-8-8-11--8-8-8-8-|-7--8-8-8-8-8--10-8-7-|
|----------------------------|------------------------|----------------------|
|----------------------------|------------------------|----------------------|
|----------------------------|------------------------|----------------------|


  N.C.
                                          |-3-|
  Q  S S S S  Q  S S S S   Q  S S S S Q   E E E   Q  Q  Q  Q
|------------------------|----------------------|-------------|
|------------------------|----------------------|-------------|
|------------------------|----------------------|-------------|
|-------------4----------|----------------------|-------------|
|-6----------------------|-5----------6---8-6-5-|-6-----------|
|------------------------|----------------------|----6--7--4--|
|----6-6-6-6-----6-6-6-6-|----6-6-6-6-----------|-------------|
|
|                                         |-3-|
| Q  S S S S  Q  S S S S   Q  S S S S Q   E E E   Q  Q  Q  Q
|------------------------|----------------------|-------------|
|------------------------|----------------------|-------------|
|------------------------|----------------------|-8-----------|
|-4-----------8----------|------------4---6-4-3-|----8--9--6--|
|----6-6-6-6-----6-6-6-6-|-8--6-6-6-6-----------|-------------|
|------------------------|----------------------|-------------|
|
|                                         |-3-|
| Q  S S S S  Q  S S S S   Q  S S S S Q   E E E   W
|------------------------|----------------------|-------------|
|-7----------11----------|-6----------7---9-7-6-|-------------|
|-8--8-8-8-8-11--8-8-8-8-|-7--8-8-8-8-8--10-8-7-|-------------|
|------------------------|----------------------|-------------|
|------------------------|----------------------|-------------|
|------------------------|----------------------|-------------|


  N.C.
  Q  Q  Q  Q    Q  Q  Q  Q    Q  Q  Q  Q    W
|-------------|-------------|-------------|------|
|-------------|-------------|-------------|------|
|-------------|-------------|-------------|------|
|-------------|-------------|-------------|------|
|----6--5--8--|-6-----------|----6--5--8--|-6----|
|-6-----------|----6--7--4--|-6-----------|------|
|-------------|-------------|-------------|------|
|
| Q  Q  Q  Q    Q  Q  Q  Q    Q  Q  Q  Q    W
|-------------|-------------|-------------|------|
|----------6--|-------------|----------6--|------|
|----8--7-----|-8-----------|----8--7-----|-8----|
|-8-----------|----8--9--6--|-8-----------|------|
|-------------|-------------|-------------|------|
|-------------|-------------|-------------|------|


              Verse
  N.C.
  +W           Q  S S S S Q  S S S S   Q  S S S S E E S S S S
|------------|-----------------------|-------------------------|
|------------|-----------------------|-------------------------|
|------------|-----------------------|-------------------------|
|-(1)--------|-4---------------------|-------------------------|
|------------|------------8----------|-6----------4-6----------|
|------------|-----------------------|-------------------------|
|------------|----6-6-6-6----6-6-6-6-|----6-6-6-6-----6-6-6-6--|
|
|              Gtr III
| +W           Q  Q       Q  Q         Q  Q       E E Q
|------------|-----------------------|-------------------------|
|-(4)--------|-7----------6----------|-------------------------|
|------------|-----------------------|-8----------6-8----------|
|------------|-----------------------|-------------------------|
|------------|-----------------------|-------------------------|
|------------|-----------------------|-------------------------|


  N.C.
  Q  S S S S Q  S S S S   Q  S S S S E E S S S S   Q  S S S S Q  S S S S
|-----------------------|------------------------|------------------------|
|-----------------------|------------------------|------------------------|
|-----------------------|------------------------|------------------------|
|-4---------------------|------------------------|-4----------------------|
|------------8----------|-6----------4-6---------|------------8-----------|
|-----------------------|------------------------|------------------------|
|----6-6-6-6----6-6-6-6-|----6-6-6-6-----6-6-6-6-|----6-6-6-6----6-6-6-6--|
|
| Gtr II
| W                       W                        Q  Q       Q  Q
|-----------------------|------------------------|-6----------4-----------|
|-----------------------|------------------------|------------------------|
|-----------------------|------------------------|-3----------1-----------|
|-----------------------|------------------------|------------------------|
|-----------------------|------------------------|------------------------|
|-----------------------|------------------------|------------------------|
|
| Gtr III
| Q  Q       Q  Q         Q  Q       E E Q         Q  Q       Q  Q
|-----------------------|------------------------|------------------------|
|-7----------6----------|------------------------|-7----------6-----------|
|-----------------------|-8----------6-8---------|------------------------|
|-----------------------|------------------------|------------------------|
|-----------------------|------------------------|------------------------|
|-----------------------|------------------------|------------------------|


  N.C.
  Q  S S S S E E S S S S   Q  S S S S Q  S S S S   Q  S S S S E E S S S S
|------------------------|-----------------------|-------------------------|
|------------------------|-----------------------|-------------------------|
|------------------------|-----------------------|-------------------------|
|------------------------|-4---------------------|-------------------------|
|-6----------4-6---------|------------8----------|-6----------4-6----------|
|------------------------|-----------------------|-------------------------|
|----6-6-6-6-----6-6-6-6-|----6-6-6-6----6-6-6-6-|----6-6-6-6-----6-6-6-6--|
|
| Q  Q       E E Q         Q  Q       Q  Q         Q  Q       E E Q
|------------------------|-6----------4----------|-------------------------|
|-7----------6-7---------|-----------------------|-7----------6-7----------|
|------------------------|-3----------1----------|-------------------------|
|-4----------3-4---------|-----------------------|-4----------3-4----------|
|------------------------|-----------------------|-------------------------|
|------------------------|-----------------------|-------------------------|
|
| Q  Q       E E Q         Q  Q       Q  Q         Q  Q       E E Q
|------------------------|-----------------------|-------------------------|
|------------------------|-7----------6----------|-------------------------|
|-8----------6-8---------|-----------------------|-8----------6-8----------|
|------------------------|-----------------------|-------------------------|
|------------------------|-----------------------|-------------------------|
|------------------------|-----------------------|-------------------------|


  E#
   S S  S S  S  S  S S  S S  S S   S  S S S
|-------------------------------------------|
|-------------------------------------------|
|-------------------------------------------|
|-------------------------------------------|
|--8-8--8-8--8--8--8-8--8-8--8-8---8--8-8-8-|
|-------------------------------------------|
|-------------------------------------------|
|
|  E    E    S  S  E    E    E    +Q
|------16---16-15-13---18---20---(20)-------|
|-18----------------------------------------|
|-------------------------------------------|
|-------------------------------------------|
|-------------------------------------------|
|-------------------------------------------|


  D#
   S S  S S  S  S  S S  S S  S S   S  S S S
|-------------------------------------------|
|-------------------------------------------|
|-------------------------------------------|
|-------------------------------------------|
|--6-6--6-6--6--6--6-6--6-6--6-6---6--6-6-6-|
|-------------------------------------------|
|-------------------------------------------|
|
|  E    E    S  S  E    E    E    +Q
|------16---16-15-13---20---18---(18)-------|
|-18----------------------------------------|
|-------------------------------------------|
|-------------------------------------------|
|-------------------------------------------|
|-------------------------------------------|


  A#                                          G#5
   S S  S S  S  S  S S  S S  S S   S  S S S    W
|-------------------------------------------|-------------------------|
|-------------------------------------------|-------------------------|
|-------------------------------------------|-------------------------|
|-------------------------------------------|--6----------------------|
|-------------------------------------------|--6----------------------|
|--6-6--6-6--6--6--6-6--6-6--6-6---6--6-6-6-|--4----------------------|
|-------------------------------------------|-------------------------|
|
|  E    E    S  S  E    E    E    +Q           E  E  E  E  E  E  +Q
|------16---16-15-13---18---20---(20)-------|-20-18-18-16-16-15-(15)--|
|-18----------------------------------------|-------------------------|
|-------------------------------------------|-------------------------|
|-------------------------------------------|-------------------------|
|-------------------------------------------|-------------------------|
|-------------------------------------------|-------------------------|


  E#
   S S  S S  S  S  S S  S S  S S   S  S S S
|-------------------------------------------|
|-------------------------------------------|
|-------------------------------------------|
|-------------------------------------------|
|--8-8--8-8--8--8--8-8--8-8--8-8---8--8-8-8-|
|-------------------------------------------|
|-------------------------------------------|
|
|  E    E    S  S  E    E    E    +Q
|------16---16-15-13---18---20---(20)-------|
|-18----------------------------------------|
|-------------------------------------------|
|-------------------------------------------|
|-------------------------------------------|
|-------------------------------------------|


  D#
   S S  S S  S  S  S S  S S  S S   S  S S S
|-------------------------------------------|
|-------------------------------------------|
|-------------------------------------------|
|-------------------------------------------|
|--6-6--6-6--6--6--6-6--6-6--6-6---6--6-6-6-|
|-------------------------------------------|
|-------------------------------------------|
|
|  E    E    S  S  E    E    E    +Q
|------16---16-15-13---20---18---(18)-------|
|-18----------------------------------------|
|-------------------------------------------|
|-------------------------------------------|
|-------------------------------------------|
|-------------------------------------------|


  A#
   S S  S S  S  S  S S  S S  S S   S  S S S
|-------------------------------------------|
|-------------------------------------------|
|-------------------------------------------|
|-------------------------------------------|
|-------------------------------------------|
|--6-6--6-6--6--6--6-6--6-6--6-6---6--6-6-6-|
|-------------------------------------------|
|
|  E    E    S  S  E    E    E    +Q
|------16---16-15-13---18---20---(20)-------|
|-18----------------------------------------|
|-------------------------------------------|
|-------------------------------------------|
|-------------------------------------------|
|-------------------------------------------|


  G#5                       F5   F5   F5
   W                        Q  E Q  E Q
|-------------------------|---------------|
|-------------------------|---------------|
|-------------------------|---------------|
|--6----------------------|-3----3----3---|
|--6----------------------|-3----3----3---|
|--4----------------------|-1----1----1---|
|-------------------------|---------------|
|
|  E  E  E  E  E  E  +Q     W
|-20-18-18-16-16-15-(15)--|---------------|
|-------------------------|---------------|
|-------------------------|---------------|
|-------------------------|---------------|
|-------------------------|---------------|
|-------------------------|---------------|


   W
|-------------------------------------------------|
|-------------------------------------------------|
|-------------------------------------------------|
|-------------------------------------------------|
|-------------------------------------------------|
|-------------------------------------------------|
|-------------------------------------------------|
|
|  S  S  S  S  S  S  S  S  S  S  S  S  S  S  S  S
|-11----------11----------11----------11----------|
|----13-11-13----13-11-13----13-11-13----13-11-13-|
|-------------------------------------------------|
|-------------------------------------------------|
|-------------------------------------------------|
|-------------------------------------------------|


  F5     F5     Eb5
   Q   E  Q   E  Q     +W
|-------------------|------------------|
|-------------------|------------------|
|-------------------|------------------|
|--3------3---------|------------------|
|--3------3------6--|--(6)-------------|
|--1------1------6--|--(6)-------------|
|----------------6--|--(6)-------------|
|
|  Q.     Q.     Q     +E   Q.    H
|-------------------|------------------|
|---------------11--|-(11)-12----13----|
|-10-----13---------|------------------|
|-------------------|------------------|
|-------------------|------------------|
|-------------------|------------------|


  F5   F5   F5                        F5   F5   Eb5
  Q  E Q  E Q     W                   Q  E Q  E Q    +W
|--------------|--------------------|--------------|--------|
|--------------|--------------------|--------------|--------|
|--------------|--------------------|--------------|--------|
|-3----3----3--|--------------------|-3----3-------|--------|
|-3----3----3--|--------------------|-3----3----6--|-(6)----|
|-1----1----1--|--------------------|-1----1----6--|-(6)----|
|--------------|--------------------|-----------6--|-(6)----|
|
| W               Q.     E  H         W               W
|--------------|-18b20--------------|--------------|--------|
|--------------|-----------20b21----|--------------|--------|
|--------------|--------------------|--------------|--------|
|--------------|--------------------|--------------|--------|
|--------------|--------------------|--------------|--------|
|--------------|--------------------|--------------|--------|


  G
   S S  S S  S  S  S S  S S  S  S S S S S
|-----------------------------------------|
|-----------------------------------------|
|-----------------------------------------|
|--5-5--5-5--5--5--5-5--5-5--5--5-5-5-5-5-|
|-----------------------------------------|
|-----------------------------------------|
|-----------------------------------------|
|
|  E    E    S  S  E    E    Q.
|-----------------------------------------|
|----------------------13---15------------|
|-12---15---15-14-12----------------------|
|-----------------------------------------|
|-----------------------------------------|
|-----------------------------------------|


  E#
   S S  S S  S  S  S S  S S  S  S S S S S
|-----------------------------------------|
|-----------------------------------------|
|-----------------------------------------|
|--3-3--3-3--3--3--3-3--3-3--3--3-3-3-3-3-|
|-----------------------------------------|
|-----------------------------------------|
|-----------------------------------------|
|
|  E    E    S  S  E    E    Q.
|-----------------------------------------|
|----------------------15---13------------|
|-12---15---15-14-12----------------------|
|-----------------------------------------|
|-----------------------------------------|
|-----------------------------------------|


  B#                                        Bb5
   S S  S S  S  S  S S  S S  S  S S S S S    W
|-----------------------------------------|----------------------|
|-----------------------------------------|----------------------|
|-----------------------------------------|--3-------------------|
|-----------------------------------------|--3-------------------|
|--3-3--3-3--3--3--3-3--3-3--3--3-3-3-3-3-|--1-------------------|
|-----------------------------------------|----------------------|
|-----------------------------------------|----------------------|
|
|  E    E    S  S  E    E    Q.              E  E  E  E  E  Q.
|------18---18-17------20---22------------|-22-20-20-18-18-17----|
|-20--------------20----------------------|----------------------|
|-----------------------------------------|----------------------|
|-----------------------------------------|----------------------|
|-----------------------------------------|----------------------|
|-----------------------------------------|----------------------|


  G
   S S  S S  S  S  S S  S S  S  S S S S S
|-----------------------------------------|
|-----------------------------------------|
|-----------------------------------------|
|--5-5--5-5--5--5--5-5--5-5--5--5-5-5-5-5-|
|-----------------------------------------|
|-----------------------------------------|
|-----------------------------------------|
|
|  E    E    S  S  E    E    Q.
|------18---18-17------20---22------------|
|-20--------------20----------------------|
|-----------------------------------------|
|-----------------------------------------|
|-----------------------------------------|
|-----------------------------------------|


  E#
   S S  S S  S  S  S S  S S  S  S S S S S
|-----------------------------------------|
|-----------------------------------------|
|-----------------------------------------|
|--3-3--3-3--3--3--3-3--3-3--3--3-3-3-3-3-|
|-----------------------------------------|
|-----------------------------------------|
|-----------------------------------------|
|
|  E    E    S  S  E    E    Q.
|------18---18-17------22---20------------|
|-20--------------20----------------------|
|-----------------------------------------|
|-----------------------------------------|
|-----------------------------------------|
|-----------------------------------------|


  B#
   S S  S S  S  S  S S  S S  S S   S  S S S
|-------------------------------------------|
|-------------------------------------------|
|-------------------------------------------|
|-------------------------------------------|
|--3-3--3-3--3--3--3-3--3-3--3-3---3--3-3-3-|
|-------------------------------------------|
|-------------------------------------------|
|
|  E    E    S  S  E    E    E    +Q
|------18---18-17------20---22---(22)-------|
|-20--------------20------------------------|
|-------------------------------------------|
|-------------------------------------------|
|-------------------------------------------|
|-------------------------------------------|


                           Chorus
  Bb5                       Eb5
   W                        W
|-------------------------|---------------|
|-------------------------|---------------|
|--3----------------------|-8-------------|
|--3----------------------|-8-------------|
|--1----------------------|-6-------------|
|-------------------------|---------------|
|-------------------------|---------------|
|
|  E  E  E  E  E  E  +Q     Q.   Q.   Q
|-22-20-20-18-18-17-(17)--|------2----4---|
|-------------------------|-4-------------|
|-------------------------|---------------|
|-------------------------|---------------|
|-------------------------|---------------|
|-------------------------|---------------|


  B5               C#5              G#5              Eb5
  W                W                W                W
|----------------|----------------|----------------|----------------|
|----------------|----------------|----------------|----------------|
|-4--------------|-6--------------|----------------|-8--------------|
|-4--------------|-6--------------|-6--------------|-8--------------|
|-2--------------|-4--------------|-6--------------|-6--------------|
|----------------|----------------|-4--------------|----------------|
|----------------|----------------|----------------|----------------|
|
| Q.   E +Q   Q    Q.   E +Q   Q    Q.   E +Q   Q    Q.   E +Q   Q
|-6----4-(4)--6--|------2-(2)--4--|-6----4-(4)--6--|------2-(2)--4--|
|----------------|-4--------------|----------------|-4--------------|
|----------------|----------------|----------------|----------------|
|----------------|----------------|----------------|----------------|
|----------------|----------------|----------------|----------------|
|----------------|----------------|----------------|----------------|


  B5               C#5              G#5              D#5
  W                W                W                W
|----------------|----------------|----------------|----------------|
|----------------|----------------|----------------|----------------|
|-4--------------|-6--------------|----------------|-8--------------|
|-4--------------|-6--------------|-6--------------|-8--------------|
|-2--------------|-4--------------|-6--------------|-6--------------|
|----------------|----------------|-4--------------|----------------|
|----------------|----------------|----------------|----------------|
|
| Q.   E +Q   Q    Q.   E +Q   Q    Q.   E +Q   Q    Q.   E +Q   Q
|-6----4-(4)--6--|------2-(2)--4--|-6----4-(4)--6--|------2-(2)--4--|
|----------------|-4--------------|----------------|-4--------------|
|----------------|----------------|----------------|----------------|
|----------------|----------------|----------------|----------------|
|----------------|----------------|----------------|----------------|
|----------------|----------------|----------------|----------------|


  B5               C#5              G#5              D#5
  W                W                W                W
|----------------|----------------|----------------|----------------|
|----------------|----------------|----------------|----------------|
|-4--------------|-6--------------|----------------|-8--------------|
|-4--------------|-6--------------|-6--------------|-8--------------|
|-2--------------|-4--------------|-6--------------|-6--------------|
|----------------|----------------|-4--------------|----------------|
|----------------|----------------|----------------|----------------|
|
| Q.   E +Q   Q    Q.   E +Q   Q    Q.   E +Q   Q    Q.   E +Q   Q
|-6----4-(4)--6--|------2-(2)--4--|-6----4-(4)--6--|------2-(2)--4--|
|----------------|-4--------------|----------------|-4--------------|
|----------------|----------------|----------------|----------------|
|----------------|----------------|----------------|----------------|
|----------------|----------------|----------------|----------------|
|----------------|----------------|----------------|----------------|


                                                    Bridge
  B5               C#5              G#5              E#5
  W                W                W                Q  E E +Q   S S E
|----------------|----------------|----------------|--------------------|
|----------------|----------------|----------------|--------------------|
|-4--------------|-6--------------|----------------|--------------------|
|-4--------------|-6--------------|-6--------------|--------------------|
|-2--------------|-4--------------|-6--------------|----8-6-(6)---------|
|----------------|----------------|-4--------------|-8------------------|
|----------------|----------------|----------------|-8-----------6-6-6--|
|
| Q.   E +Q   Q    Q.   E +Q   Q    Q.   E +Q   Q    W
|-6----4-(4)--6--|------2-(2)--4--|-6----4-(4)--6--|--------------------|
|----------------|-4--------------|----------------|--------------------|
|----------------|----------------|----------------|--------------------|
|----------------|----------------|----------------|--------------------|
|----------------|----------------|----------------|--------------------|
|----------------|----------------|----------------|--------------------|


                      G#5
  Q  E E +E  E +Q      W
|-------------------|----------------------------|
|-------------------|----------------------------|
|-------------------|----------------------------|
|-------------------|--6-------------------------|
|-------------------|--6-------------------------|
|-8----7-(7)-6-(6)--|--4-------------------------|
|----6--------------|----------------------------|
|
| W                    E  E  E  E  +Q    E  E
|-------------------|-13----13----------13-15b16-|
|-------------------|----13----16-(16)-----------|
|-------------------|----------------------------|
|-------------------|----------------------------|
|-------------------|----------------------------|
|-------------------|----------------------------|


                E#5
   +W           E E E E +Q   S S E
|-------------|---------------------|
|-------------|---------------------|
|-------------|---------------------|
|--(6)--------|---------------------|
|--(6)--------|-----8-6-(6)---------|
|--(4)--------|-8-8-----------------|
|-------------|-8-8----------6-6-6--|
|
|  +W           W
|-(15)--------|---------------------|
|-------------|---------------------|
|-------------|---------------------|
|-------------|---------------------|
|-------------|---------------------|
|-------------|---------------------|


                      G#5
  Q  E E +E  E +Q      W                          +W
|-------------------|--------------------------|---------|
|-------------------|--------------------------|---------|
|-------------------|--------------------------|---------|
|-------------------|--6-----------------------|--(6)----|
|-------------------|--6-----------------------|--(6)----|
|-8----7-(7)-6-(6)--|--4-----------------------|--(4)----|
|----6--------------|--------------------------|---------|
|
| W                    E  E  E  E  +Q    Q        +W
|-------------------|-------------------16b18r=|=(16)----|
|-------------------|-18----18-16-(16)---------|---------|
|-------------------|----17--------------------|---------|
|-------------------|--------------------------|---------|
|-------------------|--------------------------|---------|
|-------------------|--------------------------|---------|


  B#
   S    S S S S S S S S S S S S S S S
|-------------------------------------|
|-------------------------------------|
|-------------------------------------|
|-------------------------------------|
|--3----3-3-3-3-3-3-3-3-3-3-3-3-3-3-3-|
|-------------------------------------|
|-------------------------------------|
|
|  W
|-18b20r==============================|
|-------------------------------------|
|-------------------------------------|
|-------------------------------------|
|-------------------------------------|
|-------------------------------------|


  B#
   S    S S S S S  S S  S S S S  S    S     S S
|-----------------------------------------------|
|-----------------------------------------------|
|-----------------------------------------------|
|-----------------------------------------------|
|--3----3-3-3-3-3--3-3--3-3-3-3--3----3-----3-3-|
|-----------------------------------------------|
|-----------------------------------------------|
|
|                                |---3---|
|  Q.              E    Q        S  S    S  E
|-18b20r===============18-------15-18---15-13---|
|-----------------20----------------------------|
|-----------------------------------------------|
|-----------------------------------------------|
|-----------------------------------------------|
|-----------------------------------------------|


  D#
   S  S S S S S  S S   S  S S S  S    S S S
|-------------------------------------------|
|-------------------------------------------|
|-------------------------------------------|
|-------------------------------------------|
|--6--6-6-6-6-6--6-6---6--6-6-6--6----6-6-6-|
|-------------------------------------------|
|-------------------------------------------|
|
|  Q.            E    +Q         Q
|-18----------------------------18b20r======|
|---------------18---(18)-------------------|
|-------------------------------------------|
|-------------------------------------------|
|-------------------------------------------|
|-------------------------------------------|
|
| Gtr III
|  W
|-------------------------------------------|
|-------------------------------------------|
|-------------------------------------------|
|-------------------------------------------|
|-------------------------------------------|
|-------------------------------------------|


  D#5           E#5
                |-3-|  |----3-----|
    W           Q Q Q  Q Q        Q
|-------------|------------------------|
|-------------|------------------------|
|---8---------|------------------------|
|---8---------|------------------------|
|---6---------|-3-3-3------------------|
|-------------|-1-1-1--4-3--------1----|
|-------------|------------------------|
|
|               |-3-|       |--3--|
|  +W           Q Q Q  Q    S  S  S  E
|-(18)--------|-------16---15-16-15-13-|
|-------------|------------------------|
|-------------|------------------------|
|-------------|------------------------|
|-------------|------------------------|
|-------------|------------------------|
|
|               |-3-|       |--3--|
|   W           Q Q Q  Q    S  S  S  E
|-------------|-------20---18-20-18-16-|
|-------------|------------------------|
|-------------|------------------------|
|-------------|------------------------|
|-------------|------------------------|
|-------------|------------------------|


                                                      Verse
                             G#5         A#5   A#5
       |--3--|  |--3--|
   Q   S  S  S  Q  Q  Q  E   W            H     H      W
|--------------------------|-----------|-------------|------|
|--------------------------|-----------|-------------|------|
|--------------------------|-----------|-------------|------|
|--------------------------|-6---------|--8-----8----|------|
|--------------------------|-6---------|--8-----8----|------|
|--3---1--3--1-----1-----8-|-4---------|--6-----6----|------|
|---------------6-----6----|-----------|-------------|------|
|
|      |--3--|  |--3--|
|  Q   S  S  S  Q  Q  Q  E   H    H       H     H      W
|-15--13-15-13----13-------|-----------|--------8----|------|
|--------------16----16-13-|-6----8----|--9----------|------|
|--------------------------|-----------|-------------|-8----|
|--------------------------|-----------|-------------|------|
|--------------------------|-----------|-------------|------|
|--------------------------|-----------|-------------|------|
|
|      |--3--|  |--3--|
|  Q   S  S  S  Q  Q  Q  E   H    H       H     H      W
|-18--16-18-16-15-16-15----|-----------|-------------|------|
|-----------------------16-|-----------|--------8----|-7----|
|--------------------------|-5----7----|--8----10----|------|
|--------------------------|-6----8----|-10----------|------|
|--------------------------|-----------|-------------|-6----|
|--------------------------|-----------|-------------|------|


  N.C.
  Gtr II
   +W           W          +H.      a Q    W
|-------------|----------|----------8-6--|------|
|-------------|-7--------|-(7)-----------|-6----|
|--(8)--------|----------|---------------|------|
|-------------|----------|---------------|------|
|-------------|----------|---------------|------|
|-------------|----------|---------------|------|
|
| Gtr III
|  +W           W          +H.        Q    W
|-------------|----------|---------------|-5----|
|-------------|----------|---------------|------|
|-(11)--------|----------|---------------|------|
|-------------|----------|---------------|-3----|
|-------------|-9--------|-(9)-----------|------|
|-(11)--------|----------|---------------|------|


  N.C.
   +H     Q  Q    E E +Q   +H       +W            W
|---------------|-7-6-(6)--(6)----|-(6)--------|-------|
|--(6)----6-----|-----------------|------------|--4----|
|---------------|-----------------|------------|-------|
|------------8--|-----------------|------------|-------|
|---------------|-----------------|------------|-------|
|---------------|-----------------|------------|-------|
|
|  +H     H       W                  W            W
|---------------|-----------------|------------|-------|
|-(10)----------|-----------------|------------|-------|
|---------------|-----------------|------------|-11----|
|---------------|-----------------|------------|-------|
|---------------|-----------------|------------|-------|
|-(13)----------|-----------------|------------|-11----|


  N.C.
   +W           W          +H.      a Q     W
|-------------|-2--------|-(2)------8-6--|-------|
|--(4)--------|----------|---------------|--6----|
|-------------|----------|---------------|-------|
|-------------|----------|---------------|-------|
|-------------|----------|---------------|-------|
|-------------|----------|---------------|-------|
|
|  +W           W          +H.        Q     W
|-------------|----------|---------------|-------|
|-------------|----------|---------------|-10----|
|-(11)--------|----------|---------------|-------|
|-------------|----------|---------------|-------|
|-------------|-9--------|-(9)-----------|-------|
|-(11)--------|----------|---------------|-13----|


  N.C.
  Gtr I
    W             W
|---------------|-----------------|
|---------------|-----------------|
|---------------|-----------------|
|---------------|-----------------|
|---------------|-----------------|
|---------------|-----------------|
|---------------|-----------------|
|
| Gtr II
|  +H     Q  Q    E E +Q   +H
|---------------|-7-6-(6)--(6)----|
|--(6)----6-----|-----------------|
|---------------|-----------------|
|------------8--|-----------------|
|---------------|-----------------|
|---------------|-----------------|
|
| Gtr III
|  +H     H       W
|---------------|-----------------|
|-(10)----------|-----------------|
|---------------|-----------------|
|---------------|-----------------|
|---------------|-----------------|
|-(13)----------|-----------------|


   W            E  S  S  S S S S S S S S E E
|------------|--------------------------------|
|------------|--------------------------------|
|------------|--------------------------------|
|------------|--------------------------------|
|------------|---------------9---7-7-7---7----|
|------------|-11-11-11-11-----------------9--|
|------------|--------------------------------|
|
| +W            W
|-(6)--------|--------------------------------|
|------------|--------------------------------|
|------------|--------------------------------|
|------------|--------------------------------|
|------------|--------------------------------|
|------------|--------------------------------|
|
|  W            W
|------------|--------------------------------|
|------------|--------------------------------|
|------------|--------------------------------|
|------------|--------------------------------|
|------------|--------------------------------|
|------------|--------------------------------|


                           E5
  E  S  S  S S S S S S S S Q    E S S S S S S S S S S E E
|-----------------------------|---------------------------|
|-----------------------------|---------------------------|
|--------------------------9--|---------------------------|
|--------------------------9--|-----------4---2-2-2---2---|
|--------------9---7-7-7---7--|-6-6-6-6-----------------4-|
|---11-11-11------------------|---------------------------|
|-----------------------------|---------------------------|


                            Verse
                        E5   N.C.
  E S S S S S S S S S S Q     S S  S S  E  E   E   E  E E
|--------------------------|------------------------------|
|--------------------------|------------------------------|
|-----------------------9--|------------------------------|
|-----------4---2-2-2---9--|------------------------------|
|---6-6-6---------------7--|--6-6--6-6--6--6-------6--6-4-|
|--------------------------|------------------------------|
|--------------------------|------------------------------|
|
| Gtr II
| W                           E    E    E  E  +E   E  Q
|--------------------------|------------------------------|
|--------------------------|-19---18---19------------18---|
|--------------------------|--------------20-(20)-20------|
|--------------------------|------------------------------|
|--------------------------|------------------------------|
|--------------------------|------------------------------|


   S S  S S  E  E   E   E   E  E
|--------------------------------|
|--------------------------------|
|--------------------------------|
|--------------------------------|
|--6-6--6-6--6--6-------6---6--4-|
|--------------------------------|
|--------------------------------|
|
|  E    E    E  E  +E   E  +Q
|-----------18-16-(16)-14-(14)---|
|-19---18------------------------|
|--------------------------------|
|--------------------------------|
|--------------------------------|
|--------------------------------|


  N.C.
   S    S S S E  E   E  E  E    E
|---------------------------------|
|---------------------------------|
|---------------------------------|
|--4----4-4-4-4--4------4--4------|
|-------------------------------4-|
|---------------------------------|
|---------------------------------|
|
|  Q.            E  +Q     Q
|-16b18---------16-(16)---16b18r==|
|---------------------------------|
|---------------------------------|
|---------------------------------|
|---------------------------------|
|---------------------------------|


    S  S S S E E E E E E    S S  S S  E  E   E   E  E E
|------------------------|-------------------------------|
|------------------------|-------------------------------|
|------------------------|-------------------------------|
|---4--4-4-4-4-4---4-4---|-------------------------------|
|----------------------4-|--6-6--6-6--6--6-------6--6-4--|
|------------------------|-------------------------------|
|------------------------|-------------------------------|
|
|  +W                       E    E    E  E  +E   E  Q
|-(16)-------------------|-14---13---14------------------|
|------------------------|--------------16-(16)-16-18----|
|------------------------|-------------------------------|
|------------------------|-------------------------------|
|------------------------|-------------------------------|
|------------------------|-------------------------------|


  N.C.
   S S  S S  E  E   E   E   E  E
|--------------------------------|
|--------------------------------|
|--------------------------------|
|--------------------------------|
|--6-6--6-6--6--6-------6---6--4-|
|--------------------------------|
|--------------------------------|
|
|  E    E    E  E  +E   E  +Q
|-----------18-16-(16)-14-(14)---|
|-19---18------------------------|
|--------------------------------|
|--------------------------------|
|--------------------------------|
|--------------------------------|


   S    S S S E  E   E  E  E    E     S  S S S E E E E E E
|---------------------------------|-------------------------|
|---------------------------------|-------------------------|
|---------------------------------|-------------------------|
|--4----4-4-4-4--4------4--4------|---4--4-4-4-4-4---4-4----|
|-------------------------------4-|----------------------4--|
|---------------------------------|-------------------------|
|---------------------------------|-------------------------|
|
|  Q.            E  +Q     Q         +W
|-16b18---------21-(21)---23b25r==|=(23)--------------------|
|---------------------------------|-------------------------|
|---------------------------------|-------------------------|
|---------------------------------|-------------------------|
|---------------------------------|-------------------------|
|---------------------------------|-------------------------|


  N.C.
   S S  S S  E  E   E   E  E E    S S  S S  E  E   E   E   E  E
|------------------------------|--------------------------------|
|------------------------------|--------------------------------|
|------------------------------|--------------------------------|
|------------------------------|--------------------------------|
|--6-6--6-6--6--6-------6--6-4-|--6-6--6-6--6--6-------6---6--4-|
|------------------------------|--------------------------------|
|------------------------------|--------------------------------|
|
|  E    E    E  E  +E   E  Q      E    E    E  E  +E   E  +Q
|-14---13---14-----------------|-----------18-16-(16)-14-(14)---|
|--------------16-(16)-16-18---|-19---18------------------------|
|------------------------------|--------------------------------|
|------------------------------|--------------------------------|
|------------------------------|--------------------------------|
|------------------------------|--------------------------------|


   S    S S S E  E   E  E  E    E
|----------------------------------|
|----------------------------------|
|----------------------------------|
|--4----4-4-4-4--4------4--4-------|
|-------------------------------4--|
|----------------------------------|
|----------------------------------|
|
|  Q.            E  +Q     Q
|-16b18---------16-(16)---16b18r===|
|----------------------------------|
|----------------------------------|
|----------------------------------|
|----------------------------------|
|----------------------------------|


  N.C.
    S  S S S E E E E E E    S S  S S  E  E   E   E  E E
|------------------------|------------------------------|
|------------------------|------------------------------|
|------------------------|------------------------------|
|---4--4-4-4-4-4---4-4---|------------------------------|
|----------------------4-|--6-6--6-6--6--6-------6--6-4-|
|------------------------|------------------------------|
|------------------------|------------------------------|
|
|  +W                       E    E    E  E  +E   E  Q
|-(16)-------------------|-14---13---14------------13---|
|------------------------|--------------16-(16)-16------|
|------------------------|------------------------------|
|------------------------|------------------------------|
|------------------------|------------------------------|
|------------------------|------------------------------|


   S S  S S  E  E   E   E   E  E
|---------------------------------|
|---------------------------------|
|---------------------------------|
|---------------------------------|
|--6-6--6-6--6--6-------6---6--4--|
|---------------------------------|
|---------------------------------|
|
|  E    E    E  E  +E   E  +Q
|-14---13---18-16-(16)-14-(14)----|
|---------------------------------|
|---------------------------------|
|---------------------------------|
|---------------------------------|
|---------------------------------|


  N.C.
   S    S S S E  E   E  E  E    E
|---------------------------------|
|---------------------------------|
|---------------------------------|
|--4----4-4-4-4--4------4--4------|
|-------------------------------4-|
|---------------------------------|
|---------------------------------|
|
|  Q.            E  +Q     Q
|-16b18---------21-(21)---23b25r==|
|---------------------------------|
|---------------------------------|
|---------------------------------|
|---------------------------------|
|---------------------------------|


                          Chorus
                           D#5              B5
    S  S S S E E E E E E   W                W
|------------------------|----------------|----------------|
|------------------------|----------------|----------------|
|------------------------|-8--------------|----------------|
|---4--4-4-4-4-4---4-4---|-8--------------|-9--------------|
|----------------------4-|-6--------------|-9--------------|
|------------------------|----------------|-7--------------|
|------------------------|----------------|----------------|
|
|  +W                      Q.   E +Q   Q    Q.   E +Q   Q
|-(23)-------------------|------2-(2)--4--|-6----4-(4)--6--|
|------------------------|-4--------------|----------------|
|------------------------|----------------|----------------|
|------------------------|----------------|----------------|
|------------------------|----------------|----------------|
|------------------------|----------------|----------------|


  C#5              G#5              D#5              B5
  W                W                W                W
|----------------|----------------|----------------|----------------|
|----------------|----------------|----------------|----------------|
|-6--------------|----------------|-8--------------|----------------|
|-6--------------|-6--------------|-8--------------|-9--------------|
|-4--------------|-6--------------|-6--------------|-9--------------|
|----------------|-4--------------|----------------|-7--------------|
|----------------|----------------|----------------|----------------|
|
| Q.   E +Q   Q    Q.   E +Q   Q    Q.   E +Q   Q    Q.   E +Q   Q
|------2-(2)--4--|-6----4-(4)--6--|------2-(2)--4--|-6----4-(4)--6--|
|-4--------------|----------------|-4--------------|----------------|
|----------------|----------------|----------------|----------------|
|----------------|----------------|----------------|----------------|
|----------------|----------------|----------------|----------------|
|----------------|----------------|----------------|----------------|


  C#5              G#5              D#5              B5
  W                W                W                W
|----------------|----------------|----------------|----------------|
|----------------|----------------|----------------|----------------|
|-6--------------|----------------|-8--------------|----------------|
|-6--------------|-6--------------|-8--------------|-9--------------|
|-4--------------|-6--------------|-6--------------|-9--------------|
|----------------|-4--------------|----------------|-7--------------|
|----------------|----------------|----------------|----------------|
|
| Q.   E +Q   Q    Q.   E +Q   Q    Q.   E +Q   Q    Q.   E +Q   Q
|------2-(2)--4--|-6----4-(4)--6--|------2-(2)--4--|-6----4-(4)--6--|
|-4--------------|----------------|-4--------------|----------------|
|----------------|----------------|----------------|----------------|
|----------------|----------------|----------------|----------------|
|----------------|----------------|----------------|----------------|
|----------------|----------------|----------------|----------------|


  C#5              G#5              D#5              B5
  W                W                W                W
|----------------|----------------|----------------|----------------|
|----------------|----------------|----------------|----------------|
|-6--------------|----------------|-8--------------|----------------|
|-6--------------|-6--------------|-8--------------|-9--------------|
|-4--------------|-6--------------|-6--------------|-9--------------|
|----------------|-4--------------|----------------|-7--------------|
|----------------|----------------|----------------|----------------|
|
| Q.   E +Q   Q    Q.   E +Q   Q    Q.   E +Q   Q    Q.   E +Q   Q
|------2-(2)--4--|-6----4-(4)--6--|------2-(2)--4--|-6----4-(4)--6--|
|-4--------------|----------------|-4--------------|----------------|
|----------------|----------------|----------------|----------------|
|----------------|----------------|----------------|----------------|
|----------------|----------------|----------------|----------------|
|----------------|----------------|----------------|----------------|


  C#5              G#5                             D#5      D#5
  W                W                  S  S S S S S E  E S S E E
|----------------|----------------|-----------------------------|
|----------------|----------------|-----------------------------|
|-6--------------|----------------|-----------------------------|
|-6--------------|-6--------------|----------------8--------8---|
|-4--------------|-6--------------|---6--6-6-6-6-6-6----6-6-6---|
|----------------|-4--------------|-----------------------------|
|----------------|----------------|-----------------------------|
|
| Q.   E +Q   Q    Q.   E +Q   Q    a Q.           Q.       Q
|------2-(2)--4--|-6----4-(4)--6--|----------------2--------4---|
|-4--------------|----------------|-0-4-------------------------|
|----------------|----------------|-----------------------------|
|----------------|----------------|-----------------------------|
|----------------|----------------|-----------------------------|
|----------------|----------------|-----------------------------|


 Solo
  A#
   S    S S S S S  E   E  S S  E E
|----------------------------------|
|----------------------------------|
|----------------------------------|
|--8----8-8-8-8-8--8------8-8--8---|
|----------------------------------|
|----------------------------------|
|----------------------------------|
|
|  Q.              E  +Q       Q
|-----------------21-(21)-----23---|
|-21b23----------------------------|
|----------------------------------|
|----------------------------------|
|----------------------------------|
|----------------------------------|


  G#                          B
   E    S S S S E E S S E E    S  S S S S S  E   E  S S  E E
|---------------------------|--------------------------------|
|---------------------------|--------------------------------|
|---------------------------|--4--4-4-4-4-4--4------4-4--4---|
|--6----6-6-6-6-6---6-6-6---|--------------------------------|
|---------------------------|--------------------------------|
|---------------------------|--------------------------------|
|---------------------------|--------------------------------|
|
|  W                           Q.            E  +Q       Q
|---------------------------|-19------------18-(18)-----16---|
|-21b23r====================|================================|
|---------------------------|--------------------------------|
|---------------------------|--------------------------------|
|---------------------------|--------------------------------|
|---------------------------|--------------------------------|


                   D#5       D#5
      S  S S S S S  E  E S S  E E
|---------------------------------|
|---------------------------------|
|---------------------------------|
|-------------------8---------8---|
|-----6--6-6-6-6-6--6----6-6--6---|
|---------------------------------|
|---------------------------------|
|
|  a  Q.            Q.        Q
|------------------14--------16---|
|-24-16---------------------------|
|---------------------------------|
|---------------------------------|
|---------------------------------|
|---------------------------------|


  A#                                 G#
   S    S S S S S  E   E  S S  E E    E S S S S E E S S E E
|----------------------------------|-------------------------|
|----------------------------------|-------------------------|
|----------------------------------|-------------------------|
|--8----8-8-8-8-8--8------8-8--8---|--6-6-6-6-6-6---6-6-6----|
|----------------------------------|-------------------------|
|----------------------------------|-------------------------|
|----------------------------------|-------------------------|
|
|  Q.              E  +Q       Q      W
|-16b18-----------21-(21)-----23---|-------------------------|
|----------------------------------|-21----------------------|
|----------------------------------|-------------------------|
|----------------------------------|-------------------------|
|----------------------------------|-------------------------|
|----------------------------------|-------------------------|


                                 D#5                 C#5
   E    S S E  E   S  S E  E E    S S  S S  S S  S S  S S S S  S S  S S
|------------------------------|----------------------------------------|
|------------------------------|----------------------------------------|
|--4-----------4-----------4---|----------------------------------------|
|-------6-6-6------6--6-6----6-|--8-------------------6-----------------|
|------------------------------|--6-6--6-6--6-6--6-6--4-4-4-4--4-4--4-4-|
|------------------------------|----------------------------------------|
|------------------------------|----------------------------------------|
|
|  Q.          E  +Q       Q      E    E    E    E    Q        E    E
|-14b16-------14-(14)-----13---|----------------------------------------|
|------------------------------|-11---11--------11----9-------------9---|
|------------------------------|-----------11-----------------10--------|
|------------------------------|----------------------------------------|
|------------------------------|----------------------------------------|
|------------------------------|----------------------------------------|
|
| Gtr III
|  W                              E    E    E    E    Q        E    E
|------------------------------|-18---18---14-----------------13--------|
|------------------------------|----------------23---21------------21---|
|------------------------------|----------------------------------------|
|------------------------------|-16---16---13-----------------11--------|
|------------------------------|----------------21---20------------20---|
|------------------------------|----------------------------------------|


  B5                 A#5
   S S S S  S S  S S  S S S S  S S  S S
|---------------------------------------|
|---------------------------------------|
|---------------------------------------|
|---------------------------------------|
|--9------------------8-----------------|
|--7-7-7-7--7-7--7-7--6-6-6-6--6-6--6-6-|
|---------------------------------------|
|
|  Q        E    E    Q        E    E
|---------------------------------------|
|-19------------19---18------------18---|
|----------20-----------------18--------|
|---------------------------------------|
|---------------------------------------|
|---------------------------------------|
|
|  Q        E    E    Q        E    E
|-14-------11---14---13--------9---13---|
|---------------------------------------|
|---------------------------------------|
|-13--------9---13---12--------8---12---|
|---------------------------------------|
|---------------------------------------|


  D#5                 C#5
   S S  S S  S S  S S  S S S S  S S  S S
|----------------------------------------|
|----------------------------------------|
|----------------------------------------|
|--8-------------------6-----------------|
|--6-6--6-6--6-6--6-6--4-4-4-4--4-4--4-4-|
|----------------------------------------|
|----------------------------------------|
|
|  E    E    E    E    Q        E    E
|-18---18--------18---16------------16---|
|-----------19-----------------18--------|
|----------------------------------------|
|----------------------------------------|
|----------------------------------------|
|----------------------------------------|
|
|  E    E    E    E    Q        E    E
|-----------14-----------------13--------|
|-23---23--------23---21------------21---|
|----------------------------------------|
|-----------13-----------------11--------|
|-21---21--------21---20------------20---|
|----------------------------------------|


  B5                 A#5                  B#5               B#5
   S S S S  S S  S S  S S S S  S S  S S    E  S S  S S  S S  H
|---------------------------------------|----------------------------|
|---------------------------------------|----------------------------|
|---------------------------------------|----------------------------|
|--4------------------3-----------------|--5-----------------5-------|
|--2-2-2-2--2-2--2-2--1-1-1-1--1-1--1-1-|--3--3-3--3-3--3-3--3-------|
|---------------------------------------|----------------------------|
|---------------------------------------|----------------------------|
|
|  Q        E    E    Q        E    E      E  E    E    E    Q.    E
|-14------------14---13------------13---|----------------------------|
|----------16-----------------14--------|---------13---15---16----15-|
|---------------------------------------|----------------------------|
|---------------------------------------|----13----------------------|
|---------------------------------------|-15-------------------------|
|---------------------------------------|----------------------------|
|
|  Q        E    E    Q        E    E      E  E    E    E    Q.    E
|-14-------11---14---13--------9---13---|----------8-----------------|
|---------------------------------------|--------------15---16----15-|
|---------------------------------------|-----8----------------------|
|-13--------9---13---12--------8---12---|-10-------------------------|
|---------------------------------------|----------------------------|
|---------------------------------------|----------------------------|


  A#5                       G#5
    E   S S  S    S     S S  H
|-----------------------------------|
|-----------------------------------|
|-----------------------------------|
|----------------------------6------|
|---8------------------------6------|
|---6---6-6--6----6-----6-6--4------|
|-----------------------------------|
|
|            |---3---|
|  +E   E    S  S    S  E    Q   Q
|-----------------------------------|
|-(15)-16---15-16---15----------13--|
|----------------------15---13------|
|-----------------------------------|
|-----------------------------------|
|-----------------------------------|
|
|            |---3---|
|  +E   E    S  S    S  E    Q   Q
|-----------------------------------|
|-(15)-16---15-16---15----------13--|
|----------------------15---13------|
|-----------------------------------|
|-----------------------------------|
|-----------------------------------|


  G#5         E#5           A#5         G5
   H           H             H           H
|-------------------------|-------------------------|
|-------------------------|-------------------------|
|-------------------------|--3----------------------|
|--6-----------3----------|--3-----------5----------|
|--6-----------3----------|--1-----------5----------|
|--4-----------1----------|--------------3----------|
|-------------------------|-------------------------|
|
|  E  E  E  E  E  E  E  E    E  E  E  E  E  E  E  E
|-------------------------|-13-16----13-------------|
|----13-16----------13----|-------15----12-------15-|
|-13-------17----13----13-|----------------14-16----|
|-------------15----------|-------------------------|
|-------------------------|-------------------------|
|-------------------------|-------------------------|
|
|  E  E  E  E  E  E  E  E    E  E  E  E  E  E  E  E
|-------11----------------|-13-16----13----------10-|
|----13----13-------13----|-------15----12-10-12----|
|-13-------------13----13-|-------------------------|
|-------------15----------|-------------------------|
|-------------------------|-------------------------|
|-------------------------|-------------------------|


  B#5
   E    S S S S S S   Q         S S  E
|--------------------------------------|
|--------------------------------------|
|--------------------------------------|
|--5------------------5----------------|
|--3----3-3-3-3-3-3---3---------3-3--3-|
|--------------------------------------|
|--------------------------------------|
|
|  H                 +E   Q          E
|-13b15-------------(13)-13b15======18-|
|--------------------------------------|
|--------------------------------------|
|--------------------------------------|
|--------------------------------------|
|--------------------------------------|


  G#5                                     E#5
   E  S S S S  S    S     Q   S S  E       E  S S S S  S S   H
|---------------------------------------|--------------------------|
|---------------------------------------|--------------------------|
|---------------------------------------|--------------------------|
|---------------------------------------|--------------------------|
|--6----------------------6-------------|--3-----------------3-----|
|--4--4-4-4-4--4----4-----4---4-4--4----|--1--1-1-1-1--1-1---1-----|
|---------------------------------------|--------------------------|
|
|              |---3---|
|  Q.          S  S    S  Q.       E       Q.          E    +H
|-16----------15-16---15----------------|--------------------------|
|------------------------16-------18b20-|-18-----------------------|
|---------------------------------------|-------------17---(17)----|
|---------------------------------------|--------------------------|
|---------------------------------------|--------------------------|
|---------------------------------------|--------------------------|


                            B#5
   E  E  E  E  E  E  E  E    E    S S S S S S   Q        S S  E
|-------------------------|-------------------------------------|
|-------------------------|-------------------------------------|
|-------------------------|-------------------------------------|
|-------------------------|--5------------------5---------------|
|-------------------------|--3----3-3-3-3-3-3---3--------3-3--3-|
|--1--1--3--3--4--4--6--6-|-------------------------------------|
|-------------------------|-------------------------------------|
|
|  E  E  E  E  E  E  E  E    H                 +E   Q         E
|-15----16----18----20----|------------------------18b20-----23-|
|----16----18----20----21-|-18b20-------------(18)--------------|
|-------------------------|-------------------------------------|
|-------------------------|-------------------------------------|
|-------------------------|-------------------------------------|
|-------------------------|-------------------------------------|
|
| Gtr III
|  E  E  E  E  E  E  E  E    W
|-------------------------|-------------------------------------|
|-------------------------|-------------------------------------|
|--8----10----12----13----|-------------------------------------|
|----10----12----13----15-|-------------------------------------|
|-------------------------|-------------------------------------|
|-------------------------|-------------------------------------|


  G#5
   E  S S S S  S S  Q   S S  E
|-------------------------------|
|-------------------------------|
|-------------------------------|
|-------------------------------|
|--6----------------6-----------|
|--4--4-4-4-4--4-4--4---4-4--4--|
|-------------------------------|
|
|  Q.          E    Q.       E
|-22----------18------------18--|
|------------------20-----------|
|-------------------------------|
|-------------------------------|
|-------------------------------|
|-------------------------------|
|
|  W
|-------------------------------|
|-------------------------------|
|-------------------------------|
|-------------------------------|
|-------------------------------|
|-------------------------------|


  E#5
   E S S S S S S H       E     E  E     E  E     E  E     E
|---------------------|-------------------------------------|
|---------------------|-------------------------------------|
|---------------------|-------------------------------------|
|---------------------|-------------------------------------|
|--3-------------3----|-------------------------------------|
|--1-1-1-1-1-1-1-1----|--1-----1--3-----3--4-----4--6-----6-|
|---------------------|-------------------------------------|
|
|  W                     S  S  E  S  S  E  S  S  E  S  S  E
|---------------------|-15-15----16-16----18-18----20-20----|
|---------------------|-------16-------18-------20-------21-|
|-22------------------|-------------------------------------|
|---------------------|-------------------------------------|
|---------------------|-------------------------------------|
|---------------------|-------------------------------------|
|
|  W                     S  S  E  S  S  E  S  S  E  S  S  E
|---------------------|-------------------------------------|
|---------------------|-------------------------------------|
|---------------------|--8--8----10-10----12-12----13-13----|
|---------------------|-------10-------12-------13-------15-|
|---------------------|-------------------------------------|
|---------------------|-------------------------------------|


  D#5          B5      G#5          A#5
   H            H       H            H
|--------------------|------------------------|
|--------------------|------------------------|
|--------------------|------------------------|
|---------------9----|--6------------8--------|
|--6------------9----|--6------------8--------|
|--6------------7----|--4------------6--------|
|--6-----------------|------------------------|
|
|  Q      E  E  H       Q      E  E  Q   Q
|--------------------|-21b23r=19-18-16--------|
|-21b23r=19-18-16----|------------------18----|
|--------------------|------------------------|
|--------------------|------------------------|
|--------------------|------------------------|
|--------------------|------------------------|
|
|  W                    W
|--------------------|------------------------|
|--------------------|------------------------|
|--------------------|------------------------|
|--------------------|------------------------|
|--------------------|------------------------|
|--------------------|------------------------|


  D#5          B5      G#5          A#5
   H            H       H            H
|--------------------|----------------------|
|--------------------|----------------------|
|--------------------|----------------------|
|---------------9----|--6------------8------|
|--6------------9----|--6------------8------|
|--6------------7----|--4------------6------|
|--6-----------------|----------------------|
|
|  Q      E  E  H       Q      E  E  Q   Q
|-16b18r=14-13-------|-21b23r=19-18-16------|
|--------------16----|------------------18--|
|--------------------|----------------------|
|--------------------|----------------------|
|--------------------|----------------------|
|--------------------|----------------------|
|
|  W                    W
|--------------------|----------------------|
|--------------------|----------------------|
|--------------------|----------------------|
|--------------------|----------------------|
|--------------------|----------------------|
|--------------------|----------------------|


  D#5                       D#5
   Q     Q     H             Q     Q     H
|-------------------------|-------------------------|
|-------------------------|-------------------------|
|-------------------------|-------------------------|
|-------------------------|-------------------------|
|--6----------------------|--6----------------------|
|--6----------------------|--6----------------------|
|--6----------------------|--6----------------------|
|
|  E  E  E  E  E  E  E  E    E  E  E  E  E  E  E  E
|-11----11-13-14----16----|-------------------------|
|----11----------16----18-|-19----16-18-19----21----|
|-------------------------|----15----------20----10-|
|-------------------------|-------------------------|
|-------------------------|-------------------------|
|-------------------------|-------------------------|
|
|  E  E  E  E  E  E  E  E    E  E  E  E  E  E  E  E
|-------------------------|-------------------------|
|-------------11----12----|-11-----7--9-11----12----|
|-11----11-13----11----13-|-----8----------11----13-|
|----13-------------------|-------------------------|
|-------------------------|-------------------------|
|-------------------------|-------------------------|


  D#5                       D#5
   Q     Q     H             W
|-------------------------|-------------------------|
|-------------------------|-------------------------|
|-------------------------|-------------------------|
|-------------------------|-------------------------|
|--6----------------------|--6----------------------|
|--6----------------------|--6----------------------|
|--6----------------------|--6----------------------|
|
|  E  E  E  E  E  E  E  E    E  E  E  E  E  E  E  E
|-------------------------|-------------------------|
|-------------------------|-------------------------|
|-11----13-10-11----10----|-------------------------|
|----13----------13----11-|-13-----9-----8-----6----|
|-------------------------|----13----11-----9-----8-|
|-------------------------|-------------------------|
|
|  E  E  E  E  E  E  E  E    E  E  E  E  E  E  E  E
|-------------------------|-------------------------|
|-11----12----11----------|-------------------------|
|----11----13----11-13-10-|-11-11-13-10-11----10----|
|-------------------------|----------------13----12-|
|-------------------------|-------------------------|
|-------------------------|-------------------------|


 Verse
  D#5
  E E S S S S E E  S  S S S
|---------------------------|
|---------------------------|
|---------------------------|
|-8-8---------8-8-----------|
|-6-6-6-6-6-6-6-6--6--6-6-6-|
|---------------------------|
|---------------------------|
|
| E E S S E   E E +Q
|---------------------------|
|---------------------------|
|---------------------------|
|-------------6-8-(8)-------|
|-6-9-9-8-6-----------------|
|---------------------------|
|
| W
|---------------------------|
|---------------------------|
|---------------------------|
|-4-------------------------|
|-6-------------------------|
|---------------------------|


  B5
   E  E  S  S  S S  E  E   S  S S S
|-----------------------------------|
|-----------------------------------|
|-----------------------------------|
|-----------------------------------|
|--9--9-------------9--9------------|
|--7--7--7--7--7-7--7--7---7--7-7-7-|
|-----------------------------------|
|
|  E  E  S  S  E    E  E  +Q
|-----------------------------------|
|-----------------------------------|
|------------------15-13-(13)-------|
|----16-16-15-13--------------------|
|-18--------------------------------|
|-----------------------------------|


  C#5                                 G#5
   E  E  S  S  S S  E  E   S  S S S    W
|-----------------------------------|--------------------------|
|-----------------------------------|--------------------------|
|-----------------------------------|--------------------------|
|--6--6-------------6--6------------|--6-----------------------|
|--4--4--4--4--4-4--4--4---4--4-4-4-|--6-----------------------|
|-----------------------------------|--4-----------------------|
|-----------------------------------|--------------------------|
|
|  E  E  S  S  E    E  E  +Q           E  E  E  E  E  E  +Q
|-----------------------------------|--------------------------|
|-----------------------------------|--------------------------|
|------------------13-15-(15)-------|-15-13-13-----------------|
|-13-16-16-15-13--------------------|----------16-16-15-(15)---|
|-----------------------------------|--------------------------|
|-----------------------------------|--------------------------|


  D#5                                 B5
   E  E  S  S  S S  E  E   S  S S S    E  E  S  S  S S  E  E   S  S S S
|-----------------------------------|-----------------------------------|
|-----------------------------------|-----------------------------------|
|-----------------------------------|-----------------------------------|
|--8--8-------------8--8------------|-----------------------------------|
|--6--6--6--6--6-6--6--6---6--6-6-6-|--9--9-------------9--9------------|
|-----------------------------------|--7--7--7--7--7-7--7--7---7--7-7-7-|
|-----------------------------------|-----------------------------------|
|
|  E  E  S  S  E    E  E  +Q           E  E  S  S  E    E  E  +Q
|-----------------------------------|-----------------------------------|
|-----------------------------------|-----------------------------------|
|------------------13-15-(15)-------|------------------15-13-(13)-------|
|-13-16-16-15-13--------------------|-13-16-16-15-13--------------------|
|-----------------------------------|-----------------------------------|
|-----------------------------------|-----------------------------------|


  C#5
   E  E  S  S  S S  E  E   S  S S S
|------------------------------------|
|------------------------------------|
|------------------------------------|
|--6--6-------------6--6-------------|
|--4--4--4--4--4-4--4--4---4--4-4-4--|
|------------------------------------|
|------------------------------------|
|
|  E  E  S  S  E    E  E  +Q
|------------------------------------|
|------------------------------------|
|------------------13-15-(15)--------|
|-13-16-16-15-13---------------------|
|------------------------------------|
|------------------------------------|


  G#5                       E#5
   W                         E  S S  S  S  E  S S  S S   S  S S S
|-------------------------|---------------------------------------|
|-------------------------|---------------------------------------|
|-------------------------|---------------------------------------|
|--6----------------------|--3-------------3----------------------|
|--6----------------------|--3-------------3----------------------|
|--4----------------------|--1--1-1--1--1--1--1-1--1-1---1--1-1-1-|
|-------------------------|---------------------------------------|
|
|  E  E  E  E  E  E  +Q      E  E    S  S  E  E    E    +Q
|-------------------------|---------------------------------------|
|-------------------------|-----------------------13---(13)-------|
|-15-13-13----------------|----13---13-12----15-------------------|
|----------16-16-15-(15)--|-15------------15----------------------|
|-------------------------|---------------------------------------|
|-------------------------|---------------------------------------|


  C#5
   E  S S  S  S  E  S S  S S   S  S S S
|----------------------------------------|
|----------------------------------------|
|--6-------------6-----------------------|
|--6-------------6-----------------------|
|--4--4-4--4--4--4--4-4--4-4---4--4-4-4--|
|----------------------------------------|
|----------------------------------------|
|
|  E  E    S  S  E  E    E    +Q
|----------------------------------------|
|------------------13--------------------|
|----13---13-12---------15---(15)--------|
|-15------------15-----------------------|
|----------------------------------------|
|----------------------------------------|


  A#5                                     G#5
   E  S S  S  S  E  S S  S S   S  S S S    W
|---------------------------------------|-------------------------|
|---------------------------------------|-------------------------|
|---------------------------------------|-------------------------|
|--8-------------8----------------------|--6----------------------|
|--8-------------8----------------------|--6----------------------|
|--6--6-6--6--6--6--6-6--6-6---6--6-6-6-|--4----------------------|
|---------------------------------------|-------------------------|
|
|  E  E    S  S  E  E    E    +Q           E  E  E  E  E  E  +Q
|---------------------------------------|-------------------------|
|-----------------------13---(13)-------|-13----------------------|
|----13---13-12----15-------------------|----15-15-13-13-12-(12)--|
|-15------------15----------------------|-------------------------|
|---------------------------------------|-------------------------|
|---------------------------------------|-------------------------|


  E#5
   E  S S  S  S  E  S S  S S   S  S S S
|----------------------------------------|
|----------------------------------------|
|----------------------------------------|
|--3-------------3-----------------------|
|--3-------------3-----------------------|
|--1--1-1--1--1--1--1-1--1-1---1--1-1-1--|
|----------------------------------------|
|
|  E  E    S  S  E  E    E    +Q
|----------------------------------------|
|-----------------------13---(13)--------|
|----13---13-12----15--------------------|
|-15------------15-----------------------|
|----------------------------------------|
|----------------------------------------|


  C#5
   E  S S  S  S  E  S S  S S   S  S S S
|---------------------------------------|
|--2------------------------------------|
|--1-------------6----------------------|
|----------------6----------------------|
|--4--4-4--4--4--4--4-4--4-4---4--4-4-4-|
|---------------------------------------|
|---------------------------------------|
|
|  E  E    S  S  E  E    E    +Q
|---------------------------------------|
|------------------13-------------------|
|----13---13-12---------15---(15)-------|
|-15------------15----------------------|
|---------------------------------------|
|---------------------------------------|


  A#5                                     G#5
   E  S S  S  S  E  S S  S S   S  S S S    W
|---------------------------------------|--------------------------|
|---------------------------------------|--------------------------|
|---------------------------------------|--------------------------|
|--8-------------8----------------------|--6-----------------------|
|--8-------------8----------------------|--6-----------------------|
|--6--6-6--6--6--6--6-6--6-6---6--6-6-6-|--4-----------------------|
|---------------------------------------|--------------------------|
|
|  E  E    S  S  E  E    E    +Q           E  E  E  E  E  E  +Q
|---------------------------------------|--------------------------|
|-----------------------13---(13)-------|-13-----------------------|
|----13---13-12----15-------------------|----15-15-13-13-12-(12)---|
|-15------------15----------------------|--------------------------|
|---------------------------------------|--------------------------|
|---------------------------------------|--------------------------|


 Chorus
  D#5              B5               C#5              G#5
  W                W                W                W
|----------------|----------------|----------------|----------------|
|----------------|----------------|----------------|----------------|
|-8--------------|----------------|-6--------------|----------------|
|-8--------------|-9--------------|-6--------------|-6--------------|
|-6--------------|-9--------------|-4--------------|-6--------------|
|----------------|-7--------------|----------------|-4--------------|
|----------------|----------------|----------------|----------------|
|
| Q.   E +Q   Q    Q.   E +Q   Q    Q.   E +Q   Q    Q.   E +Q   Q
|------2-(2)--4--|-6----4-(4)--6--|------2-(2)--4--|-6----4-(4)--6--|
|-4--------------|----------------|-4--------------|----------------|
|----------------|----------------|----------------|----------------|
|----------------|----------------|----------------|----------------|
|----------------|----------------|----------------|----------------|
|----------------|----------------|----------------|----------------|


  D#5              B5               C#5              G#5
  W                W                W                W
|----------------|----------------|----------------|----------------|
|----------------|----------------|----------------|----------------|
|-8--------------|-4--------------|-6--------------|----------------|
|-8--------------|-4--------------|-6--------------|-6--------------|
|-6--------------|-2--------------|-4--------------|-6--------------|
|----------------|----------------|----------------|-4--------------|
|----------------|----------------|----------------|----------------|
|
| Q.   E +Q   Q    Q.   E +Q   Q    Q.   E +Q   Q    Q.   E +Q   Q
|------2-(2)--4--|-6----4-(4)--6--|------2-(2)--4--|-6----4-(4)--6--|
|-4--------------|----------------|-4--------------|----------------|
|----------------|----------------|----------------|----------------|
|----------------|----------------|----------------|----------------|
|----------------|----------------|----------------|----------------|
|----------------|----------------|----------------|----------------|


  D#5              B5               C#5              G#5
  W                W                W                W
|----------------|----------------|----------------|----------------|
|----------------|----------------|----------------|----------------|
|-8--------------|-4--------------|-6--------------|----------------|
|-8--------------|-4--------------|-6--------------|-6--------------|
|-6--------------|-2--------------|-4--------------|-6--------------|
|----------------|----------------|----------------|-4--------------|
|----------------|----------------|----------------|----------------|
|
| Q.   E +Q   Q    Q.   E +Q   Q    Q.   E +Q   Q    Q.   E +Q   Q
|------2-(2)--4--|-6----4-(4)--6--|------2-(2)--4--|-6----4-(4)--6--|
|-4--------------|----------------|-4--------------|----------------|
|----------------|----------------|----------------|----------------|
|----------------|----------------|----------------|----------------|
|----------------|----------------|----------------|----------------|
|----------------|----------------|----------------|----------------|


  D#5              B5               C#5              G#5
  W                W                W                W
|----------------|----------------|----------------|----------------|
|----------------|----------------|----------------|----------------|
|-8--------------|-4--------------|-6--------------|----------------|
|-8--------------|-4--------------|-6--------------|-6--------------|
|-6--------------|-2--------------|-4--------------|-6--------------|
|----------------|----------------|----------------|-4--------------|
|----------------|----------------|----------------|----------------|
|
| Q.   E +Q   Q    Q.   E +Q   Q    Q.   E +Q   Q    Q.   E +Q   Q
|------2-(2)--4--|-6----4-(4)--6--|------2-(2)--4--|-6----4-(4)--6--|
|-4--------------|----------------|-4--------------|----------------|
|----------------|----------------|----------------|----------------|
|----------------|----------------|----------------|----------------|
|----------------|----------------|----------------|----------------|
|----------------|----------------|----------------|----------------|


 Outro
  D#5                       A5                        D#5
  W                         W                         W
|-------------------------|-------------------------|--------------------------|
|-------------------------|-------------------------|--------------------------|
|-------------------------|-------------------------|--------------------------|
|-------------------------|-7-----------------------|--------------------------|
|-6-----------------------|-7-----------------------|-6------------------------|
|-6-----------------------|-5-----------------------|-6------------------------|
|-6-----------------------|-------------------------|-6------------------------|
|
| |-3-|       |-3-|         |-3-|       |-3-|         |-3-|       |-3-|
| E E E +E  E E E E +E  E   E E E +E  E E E E +E  E   E E E +E  E E E E +E  E
|-------------------------|-------------------------|--------------------------|
|-------------------------|-------------------------|--------------------------|
|-------------------------|-------------------------|--------------------------|
|-------------4-3-4-(4)---|-2-1-2-(2)---------------|-------------4-3-4-(4)----|
|-6-4-6-(6)---------------|-------------4-2-4-(4)---|-6-4-6-(6)----------------|
|-------------------------|-------------------------|--------------------------|


  G#5         E5            D#5                       A5
  H           H             W                         W
|-------------------------|-------------------------|--------------------------|
|-------------------------|-------------------------|--------------------------|
|-------------------------|-------------------------|--------------------------|
|-6-----------2-----------|-------------------------|-7------------------------|
|-6-----------2-----------|-6-----------------------|-7------------------------|
|-4-----------0-----------|-6-----------------------|-5------------------------|
|-------------------------|-6-----------------------|--------------------------|
|
| |-3-|       |-3-|         |-3-|       |-3-|         |-3-|       |-3-|
| E E E +E  E E E E +E  E   E E E +E  E E E E +E  E   E E E +E  E E E E +E  E
|-------------------------|-------------------------|--------------------------|
|-------------------------|-------------------------|--------------------------|
|-------------------------|-------------------------|--------------------------|
|-6-4-6-(6)---------------|-------------4-3-4-(4)---|-2-1-2-(2)----------------|
|-------------7-6-7-(7)---|-6-4-6-(6)---------------|-------------4-2-4-(4)----|
|-------------------------|-------------------------|--------------------------|


  D#5                       G#5         E5            D#5
  W                         H           H              H    H
|-------------------------|-------------------------|------------*|
|-------------------------|-------------------------|------------*|
|-------------------------|-------------------------|------------*|
|-------------------------|-6-----------2-----------|------------*|
|-6-----------------------|-6-----------2-----------|--6---------*|
|-6-----------------------|-4-----------0-----------|--6---------*|
|-6-----------------------|-------------------------|--6---------*|
|
| |-3-|       |-3-|         |-3-|       |-3-|
| E E E +E  E E E E +E  E   E E E +E  E E E E +E  E    H    H
|-------------------------|-------------------------|------------*|
|-------------------------|-------------------------|------------*|
|-------------------------|-------------------------|------------*|
|-------------4-3-4-(4)---|-6-4-6-(6)---------------|------------*|
|-6-4-6-(6)---------------|-------------7-6-7-(7)---|--6---------*|
|-------------------------|-------------------------|------------*|
|
| Gtr III
| W                         W                          H    H
|-------------------------|-------------------------|------------*|
|-------------------------|-------------------------|-16---------*|
|-------------------------|-------------------------|------------*|
|-------------------------|-------------------------|-13---------*|
|-------------------------|-------------------------|------------*|
|-------------------------|-------------------------|------------*|




--------------------------------------------------------------------------------


Duration Legend
---------------
W - whole; H - half; Q - quarter; E - 8th; S - 16th; T - 32nd; X - 64th; a - acciaccatura
+ - note tied to previous; . - note dotted; .. - note double dotted
Uncapitalized letters represent notes that are staccato (1/2 duration)
Irregular groupings are notated above the duration line
Duration letters will always appear directly above the note/fret number it represents the
duration for.  Duration letters with no fret number below them represent rests.  Multi-
bar rests are notated in the form Wxn, where n is the number of bars to rest for.  Low
melody durations appear below the staff

Tablature Legend
----------------
 h   - hammer-on
 p   - pull-off
 b   - bend
 pb  - pre-bend
 r   - bend release (if no number after the r, then release immediately)
 /\  - slide into or out of (from/to "nowhere")
 s   - legato slide
 S   - shift slide
 - natural harmonic
[n]  - artificial harmonic
n(n) - tapped harmonic
 ~   - vibrato
 tr  - trill
 T   - tap
 TP  - trem. picking
 PM  - palm muting
\n/  - tremolo bar dip; n = amount to dip
 \n  - tremolo bar down
 n/  - tremolo bar up
/n\  - tremolo bar inverted dip
 =   - hold bend; also acts as connecting device for hammers/pulls
 <> - volume swell (louder/softer)
 x   - on rhythm slash represents muted slash
 o   - on rhythm slash represents single note slash

Misc Legend
-----------
 |  - bar
||  - double bar
||o - repeat start
o|| - repeat end
*|  - double bar (ending)
 :  - bar (freetime)
 $  - Segno
 &  - Coda
Tempo markers -  = BPM(8/16=s8/s16), where s8 = swing 8ths, s16 = swing 16ths


Suggest correction
Creating personal tab
Creating personal tab
You can edit any tab online and save it as your Personal.

You can edit, replace or remove any tab part or add personal notes – all changes will be seen only by you.

Personal tabs can be accessed anytime from any device, even offline.
Learn more »
Give kudos to tab author, rate the tab!
1 2 3 4 5
comments
print report bad tab
2 comments total.
0 reply
lpcustom325 71 Jul 19, 2008 07:18 AM

Andre doesn't use a 7 string

0 reply
lpcustom325 71 Jul 19, 2008 07:19 AM

they also tune a half step down

guest
You may want to rate the tab now too:
select rating
Wanna post a correction for this tab? Suggest correction