Oops, an error
Loading. Please wait.

When Sorrow Sang bass

version 2
version 2

Whole song

Interactive

143 views 1 this week
no commentswrite comment
1 2 3 4 5
3 more votes to show rating
add to favorites
×
Save as Personal and add changes to this tab that will be seen only by you. Learn more ›
×
You can save this tab as Personal to edit and correct it or add notes. All changes will be seen only by you. Learn more »
launch autoscroll
font size
0
reset
guitar tuner
edit
Autoscroll
slow
fast
+/-
esc
set tempo
stop
#----------------------------------PLEASE NOTE---------------------------------#
#This file is the author's own work and represents their interpretation of the #
#song. You may only use this file for private study, scholarship, or research. #
#------------------------------------------------------------------------------#

WHEN SORROW SANG (Bassline)
As recorded by Blind Guardian
(From the 1998 Album NIGHTFALL IN MIDDLE-EARTH)


Transcribed by Fear Fex

 Words by Kürsch Music by Olbrich & Kürsch

 

Gtr I (Eb Ab Db Gb) - 'Bass'


 Intro
  Q=185
 4/4
  Gtr I
  Q  S S S S Q  S S S S   Q  S S S S Q  S S S S   Q  S S S S Q  S S S S
|------------0----------|-----------------------|------------0----------|
|-2---------------------|-1----------2--4-2---1-|-2---------------------|
|-----------------------|-----------------------|-----------------------|
|----0-0-0-0----0-0-0-0-|----0-0-0-0------------|----0-0-0-0----0-0-0-0-|


                |-3-|                                         |-3-|
  Q  S S S S Q  E E E   Q  S S S S Q  S S S S   Q  S S S S Q  E E E
|---------------------|------------0----------|----------------------|
|-1----------2--4-2-1-|-2---------------------|-1----------2--4-2-1--|
|---------------------|-----------------------|----------------------|
|----0-0-0-0----------|----0-0-0-0----0-0-0-0-|----0-0-0-0-----------|


                                        |-3-|
  Q  S S S S Q  S S S S   Q  S S S S Q  E E E   Q  Q  Q  Q
|------------0----------|---------------------|-------------|
|-2---------------------|-1----------2--4-2-1-|-2-----------|
|-----------------------|---------------------|----2--3--0--|
|----0-0-0-0----0-0-0-0-|----0-0-0-0----------|-------------|


  Q  Q  Q  Q    Q  Q  Q  Q    Q  Q  Q  Q    H    +Q.   E
|-------------|-------------|-------------|--------------|
|----2--1--4--|-2-----------|----2--1--4--|-2----(2)-----|
|-2-----------|----2--3--0--|-2-----------|--------------|
|-------------|-------------|-------------|------------0-|


            Verse
  W          E E S S S S E E S S S S   E E S S S S E E S S S S
|----------|-------------------------|--------------------------|
|-2--------|-2-2-2-2-2-2-2-2-2-2-2-2-|--------------------------|
|----------|-------------------------|-3-3-3-3-3-3-3-3-3-3-3-3--|
|----------|-------------------------|--------------------------|


  E E S S S S E E S S S S   E E S S S S E E S S S S   E E S S S S E E S S S S
|-------------------------|-------------------------|--------------------------|
|-------------------------|-------------------------|--------------------------|
|-5-5-5-5-5-5-5-5-5-5-5-5-|-------------------------|-7-7-7-7-7-7-7-7-7-7-7-7--|
|-------------------------|-5-5-5-5-5-5-5-5-5-5-5-5-|--------------------------|


  E E S S S S E E S S S S    E  E  S  S  S  S  E  E  S  S  S  S
|-------------------------|-------------------------------------|
|-------------------------|-------------------------------------|
|-------------------------|-------------------------------------|
|-8-8-8-8-8-8-8-8-8-8-8-8-|-10-10-10-10-10-10-10-10-10-10-10-10-|


  E E S S S S E E S S S S
|--------------------------|
|--------------------------|
|-0-0-0-0-0-0-0-0-0-0-0-0--|
|--------------------------|


  S S S S S S S S S S S S S S S S   S S S S S S S S S S S S S S S S
|---------------------------------|---------------------------------|
|---------------------------------|---------------------------------|
|---------------------------------|---------------------------------|
|-2-2-2-2-2-2-2-2-2-2-2-2-2-2-2-2-|-0-0-0-0-0-0-0-0-0-0-0-0-0-0-0-0-|


  S S S S S S S S S S S S S S S S   E S S E E E E E E
|---------------------------------|-------------------|
|---------------------------------|-------------------|
|-2-2-2-2-2-2-2-2-2-2-2-2-2-2-2-2-|-4-2-2-2-0-0-------|
|---------------------------------|-------------4-2-0-|


  S S S S S S S S S S S S S S S S   S S S S S S S S S S S S S S S S
|---------------------------------|---------------------------------|
|---------------------------------|---------------------------------|
|---------------------------------|---------------------------------|
|-2-2-2-2-2-2-2-2-2-2-2-2-2-2-2-2-|-0-0-0-0-0-0-0-0-0-0-0-0-0-0-0-0-|


  S S S S S S S S S S S S S S S S   E S S E E E E E E   Q  E Q  E Q
|---------------------------------|-------------------|--------------|
|---------------------------------|-------------------|--------------|
|-2-2-2-2-2-2-2-2-2-2-2-2-2-2-2-2-|-4-2-2-2-0-0-------|--------------|
|---------------------------------|-------------4-2-0-|-2----2----2--|


  W          Q  E Q  E Q    +W           Q  E Q  E Q
|----------|--------------|------------|--------------|
|----------|--------------|------------|--------------|
|----------|--------------|------------|--------------|
|----------|-2----2----0--|-(0)--------|-2----2----2--|


  W          Q  E Q  E Q    +W           E E S S S S E E S S S S
|----------|--------------|------------|-------------------------|
|----------|--------------|------------|-------------------------|
|----------|--------------|------------|-------------------------|
|----------|-2----2----0--|-(0)--------|-4-4-4-4-4-4-4-4-4-4-4-4-|


  E E S S S S E E S S S S   E E S S S S E E S S S S   E E E E E E E E
|-------------------------|-------------------------|------------------|
|-------------------------|-------------------------|------------------|
|-2-2-2-2-2-2-2-2-2-2-2-2-|-4-4-4-4-4-4-4-4-4-4-4-4-|-6-4-4-2-2-1------|
|-------------------------|-------------------------|-------------4-2--|


  E E S S S S E E S S S S   E E S S S S E E S S S S   E E S S S S E E S S S S
|-------------------------|-------------------------|--------------------------|
|-------------------------|-------------------------|--------------------------|
|-------------------------|-2-2-2-2-2-2-2-2-2-2-2-2-|-4-4-4-4-4-4-4-4-4-4-4-4--|
|-4-4-4-4-4-4-4-4-4-4-4-4-|-------------------------|--------------------------|


            Chorus
             |-3-| |-3-| |-3-| |-3-|
  W          E E E E E E E E E E E E
|----------|-------------------------|
|----------|-2-2-2-2-2-2-2-2-2-2-2-2-|
|-2--------|-------------------------|
|----------|-------------------------|


  |-3-| |-3-| |-3-| |-3-|   |-3-| |-3-| |-3-| |-3-|
  E E E E E E E E E E E E   E E E E E E E E E E E E
|-------------------------|-------------------------|
|-------------------------|-------------------------|
|-3-3-3-3-3-3-3-3-3-3-3-3-|-5-5-5-5-5-5-5-5-5-5-5-5-|
|-------------------------|-------------------------|


  |-3-| |-3-| |-3-| |-3-|   |-3-| |-3-| |-3-| |-3-|
  E E E E E E E E E E E E   E E E E E E E E E E E E
|-------------------------|-------------------------|
|-------------------------|-------------------------|
|-------------------------|-------------------------|
|-5-5-5-5-5-5-5-5-5-5-5-5-|-0-0-0-0-0-0-0-0-0-0-0-0-|


  |-3-| |-3-| |-3-| |-3-|   |-3-| |-3-| |-3-| |-3-|
  E E E E E E E E E E E E   E E E E E E E E E E E E
|-------------------------|-------------------------|
|-------------------------|-------------------------|
|-3-3-3-3-3-3-3-3-3-3-3-3-|-5-5-5-5-5-5-5-5-5-5-5-5-|
|-------------------------|-------------------------|


  |-3-| |-3-| |-3-| |-3-|   |-3-| |-3-| |-3-| |-3-|
  E E E E E E E E E E E E   E E E E E E E E E E E E
|-------------------------|-------------------------|
|-------------------------|-------------------------|
|-------------------------|-7-7-7-7-7-7-7-7-7-7-7-7-|
|-5-5-5-5-5-5-5-5-5-5-5-5-|-------------------------|


  |-3-| |-3-| |-3-| |-3-|    |--3--|  |--3--|  |--3--|  |--3--|
  E E E E E E E E E E E E    E  E  E  E  E  E  E  E  E  E  E  E
|-------------------------|-------------------------------------|
|-------------------------|-------------------------------------|
|-------------------------|-------------------------------------|
|-8-8-8-8-8-8-8-8-8-8-8-8-|-10-10-10-10-10-10-10-10-10-10-10-10-|


  |-3-| |-3-| |-3-| |-3-|   |-3-| |-3-| |-3-| |-3-|
  E E E E E E E E E E E E   E E E E E E E E E E E E
|-------------------------|-------------------------|
|-------------------------|-------------------------|
|-0-0-0-0-0-0-0-0-0-0-0-0-|-------------------------|
|-------------------------|-0-0-0-0-0-0-0-0-0-0-0-0-|


  |-3-| |-3-| |-3-| |-3-|    |--3--|  |--3--|  |--3--|  |--3--|
  E E E E E E E E E E E E    E  E  E  E  E  E  E  E  E  E  E  E
|-------------------------|-------------------------------------|
|-------------------------|-------------------------------------|
|-------------------------|-------------------------------------|
|-8-8-8-8-8-8-8-8-8-8-8-8-|-10-10-10-10-10-10-10-10-10-10-10-10-|


                   Bridge
  E E E E E E E E   Q  Q  H      H    E S S Q    W
|-----------------|------------|---------------|------|
|-----------------|------------|---------------|------|
|-0-0-0-0-0-0-0---|------------|---------------|-0----|
|-----------------|-2----------|--------0-0-2--|------|


  +W           E E Q  H      H    Q  Q    Q  Q  Q  Q
|------------|-------------|------------|-------------|
|------------|-------------|------------|-------------|
|-(0)--------|-------------|------------|-0-----0-----|
|------------|-2-2---------|---------2--|-------------|


  Q  Q  Q  Q    E E S S S S E E S S S S   E E S S S S E E S S S S
|-------------|-------------------------|--------------------------|
|-------------|-------------------------|--------------------------|
|-0-----0-----|-4-4-4-4-4-4-4-4-4-4-4-4-|-4-4-4-4-4-4-4-4-4-4-4-4--|
|-------------|-------------------------|--------------------------|


                                       |-3-| |-3-|      |-3-| |-3-|
  E E S S S S E E S S S S   W          Q Q Q Q Q Q   Q  S S S Q Q Q E
|-------------------------|----------|-------------|-------------------|
|-2-2-2-2-2-2-2-2-2-2-2-2-|-2--------|-------7-6-4-|-6--4-6-4---4------|
|-------------------------|----------|-------------|----------7---7-4--|
|-------------------------|-0--------|-2-2-2-------|-------------------|


                         Verse
  H    H      H    H      E S S E E S S E S S E
|-----------|-----------|------------------------|
|-----------|-----------|------------------------|
|-0----0----|-----------|------------------------|
|-----------|-7----7----|-0-0-0-0-0-0-0-0-0-0-0--|


  E S S E E S S E S S E   E S S E E S S E S S E   E S S E E S S E S S E
|-----------------------|-----------------------|-----------------------|
|-----------------------|-----------------------|-----------------------|
|-----------------------|-----------------------|-----------------------|
|-0-0-0-0-0-0-0-0-0-0-0-|-3-3-3-3-3-3-3-3-3-3-3-|-3-3-3-3-3-3-3-3-3-3-3-|


  E S S E E S S E S S E   E S S E E S S E S S E   E S S E E S S E S S E
|-----------------------|-----------------------|-----------------------|
|-----------------------|-----------------------|-----------------------|
|-2-2-2-2-2-2-2-2-2-2-2-|-2-2-2-2-2-2-2-2-2-2-2-|-2-2-2-2-2-2-2-2-2-2-2-|
|-----------------------|-----------------------|-----------------------|


  E S S E E S S E S S E   E S S E E S S E S S E   E S S E E S S E S S E
|-----------------------|-----------------------|-----------------------|
|-----------------------|-----------------------|-----------------------|
|-2-2-2-2-2-2-2-2-2-2-2-|-----------------------|-----------------------|
|-----------------------|-0-0-0-0-0-0-0-0-0-0-0-|-0-0-0-0-0-0-0-0-0-0-0-|


  E S S E E S S E S S E   E S S E E S S E S S E   E S S E E S S E S S E
|-----------------------|-----------------------|-----------------------|
|-----------------------|-----------------------|-----------------------|
|-----------------------|-----------------------|-2-2-2-2-2-2-2-2-2-2-2-|
|-3-3-3-3-3-3-3-3-3-3-3-|-3-3-3-3-3-3-3-3-3-3-3-|-----------------------|


  E S S E E S S E S S E   E S S E E S S E S S E   E S S E E S S E S S E
|-----------------------|-----------------------|-----------------------|
|-----------------------|-----------------------|-----------------------|
|-2-2-2-2-2-2-2-2-2-2-2-|-2-2-2-2-2-2-2-2-2-2-2-|-2-2-2-2-2-2-2-2-2-2-2-|
|-----------------------|-----------------------|-----------------------|


  E S S E E S S E E E   E S S E E S S E Q    E S S E E S S E E E
|---------0-----------|--------------------|---------0------------|
|-2-2-2-2---3-3-3-3---|---------5-3-3-3-3--|-2-2-2-2---3-3-3-3----|
|-------------------5-|---7-7-7------------|-------------------5--|
|---------------------|--------------------|----------------------|


                      Verse
  E S S E E S S E Q    S S S S E E E E E E   S S S S E E E E E E
|--------------------|---------------------|----------------------|
|---------5-3-3-3-3--|-2-2-2-2-2-2---2-2-0-|-2-2-2-2-2-2---2-2-0--|
|---7-7-7------------|---------------------|----------------------|
|--------------------|---------------------|----------------------|


  S S S S E E E E E E   S S S S E E E E E E   S S S S E E E E E E
|-0-0-0-0-0-0---0-0---|-0-0-0-0-0-0---0-0---|----------------------|
|-------------------0-|-------------------0-|-2-2-2-2-2-2---2-2-0--|
|---------------------|---------------------|----------------------|
|---------------------|---------------------|----------------------|


  S S S S E E E E E E   S S S S E E E E E E   S S S S E E E E E E
|---------------------|-0-0-0-0-0-0---0-0---|-0-0-0-0-0-0---0-0----|
|-2-2-2-2-2-2---2-2-0-|-------------------0-|-------------------0--|
|---------------------|---------------------|----------------------|
|---------------------|---------------------|----------------------|


  S S S S E E E E E E   S S S S E E E E E E   S S S S E E E E E E
|---------------------|---------------------|-0-0-0-0-0-0---0-0----|
|-2-2-2-2-2-2---2-2-0-|-2-2-2-2-2-2---2-2-0-|-------------------0--|
|---------------------|---------------------|----------------------|
|---------------------|---------------------|----------------------|


  S S S S E E E E E E   S S S S E E E E E E   S S S S E E E E E E
|-0-0-0-0-0-0---0-0---|---------------------|----------------------|
|-------------------0-|-2-2-2-2-2-2---2-2-0-|-2-2-2-2-2-2---2-2-0--|
|---------------------|---------------------|----------------------|
|---------------------|---------------------|----------------------|


                                             Chorus
                                              |-3-| |-3-| |-3-| |-3-|
  S S S S E E E E E E   S S S S E E E E E E   E E E E E E E E E E E E
|-0-0-0-0-0-0---0-0---|-0-0-0-0-0-0---0-0---|--------------------------|
|-------------------0-|-------------------0-|-2-2-2-2-2-2-2-2-2-2-2-2--|
|---------------------|---------------------|--------------------------|
|---------------------|---------------------|--------------------------|


  |-3-| |-3-| |-3-| |-3-|   |-3-| |-3-| |-3-| |-3-|
  E E E E E E E E E E E E   E E E E E E E E E E E E
|-------------------------|-------------------------|
|-------------------------|-------------------------|
|-3-3-3-3-3-3-3-3-3-3-3-3-|-5-5-5-5-5-5-5-5-5-5-5-5-|
|-------------------------|-------------------------|


  |-3-| |-3-| |-3-| |-3-|   |-3-| |-3-| |-3-| |-3-|
  E E E E E E E E E E E E   E E E E E E E E E E E E
|-------------------------|-------------------------|
|-------------------------|-------------------------|
|-------------------------|-------------------------|
|-5-5-5-5-5-5-5-5-5-5-5-5-|-0-0-0-0-0-0-0-0-0-0-0-0-|


  |-3-| |-3-| |-3-| |-3-|   |-3-| |-3-| |-3-| |-3-|
  E E E E E E E E E E E E   E E E E E E E E E E E E
|-------------------------|-------------------------|
|-------------------------|-------------------------|
|-3-3-3-3-3-3-3-3-3-3-3-3-|-5-5-5-5-5-5-5-5-5-5-5-5-|
|-------------------------|-------------------------|


  |-3-| |-3-| |-3-| |-3-|   |-3-| |-3-| |-3-| |-3-|
  E E E E E E E E E E E E   E E E E E E E E E E E E
|-------------------------|-------------------------|
|-------------------------|-------------------------|
|-------------------------|-7-7-7-7-7-7-7-7-7-7-7-7-|
|-5-5-5-5-5-5-5-5-5-5-5-5-|-------------------------|


  |-3-| |-3-| |-3-| |-3-|    |--3--|  |--3--|  |--3--|  |--3--|
  E E E E E E E E E E E E    E  E  E  E  E  E  E  E  E  E  E  E
|-------------------------|-------------------------------------|
|-------------------------|-------------------------------------|
|-------------------------|-------------------------------------|
|-8-8-8-8-8-8-8-8-8-8-8-8-|-10-10-10-10-10-10-10-10-10-10-10-10-|


  |-3-| |-3-| |-3-| |-3-|   |-3-| |-3-| |-3-| |-3-|
  E E E E E E E E E E E E   E E E E E E E E E E E E
|-------------------------|-------------------------|
|-------------------------|-------------------------|
|-0-0-0-0-0-0-0-0-0-0-0-0-|-------------------------|
|-------------------------|-0-0-0-0-0-0-0-0-0-0-0-0-|


  |-3-| |-3-| |-3-| |-3-|    |--3--|  |--3--|  |--3--|  |--3--|
  E E E E E E E E E E E E    E  E  E  E  E  E  E  E  E  E  E  E
|-------------------------|-------------------------------------|
|-------------------------|-------------------------------------|
|-------------------------|-------------------------------------|
|-8-8-8-8-8-8-8-8-8-8-8-8-|-10-10-10-10-10-10-10-10-10-10-10-10-|


  E E E E E E E E    E  S  S  S  S  E E  S  S  E E
|-----------------|--------------------------------|
|-----------------|--------------------------------|
|-0-0-0-0-0-0-0-0-|--------------------------------|
|-----------------|-12-12-12-12-12-12---12-12-12---|


 Solo
   E  S  S  S  S  E E  S  S  E E
|---------------------------------|
|---------------------------------|
|---------------------------------|
|-10-10-10-10-10-10---10-10-10----|


  E S S S S E E S S E E   E S S S S E E S S E E   E S S S S E E S S E E
|-----------------------|-----------------------|-----------------------|
|-----------------------|-----------------------|-----------------------|
|-----------------------|-----------------------|-7-7-7-7-7-7---7-7-7---|
|-9-9-9-9-9-9---9-9-9---|-8-8-8-8-8-8---8-8-8---|-----------------------|


  E S S S S E E S S E E   E S S S S E E S S E E   E S S S S E E S S E E
|-----------------------|-----------------------|-----------------------|
|-----------------------|-----------------------|-----------------------|
|-5-5-5-5-5-5---5-5-5---|-4-4-4-4-4-4---4-4-4---|-3-3-3-3-3-3---3-3-3---|
|-----------------------|-----------------------|-----------------------|


  S S S S S S S S S S S S S S S S   S S S S S S S S S S S S S S S S
|---------------------------------|---------------------------------|
|-2-2-2-2-2-2-2-2-0-0-0-0-0-0-0-0-|---------------------------------|
|---------------------------------|-3-3-3-3-3-3-3-3-2-2-2-2-2-2-2-2-|
|---------------------------------|---------------------------------|


  S S S S S S S S S S S S S S S S   S S S S S S S S S S S S S S S S
|---------------------------------|---------------------------------|
|-2-2-2-2-2-2-2-2-0-0-0-0-0-0-0-0-|---------------------------------|
|---------------------------------|-3-3-3-3-3-3-3-3-2-2-2-2-2-2-2-2-|
|---------------------------------|---------------------------------|


  E S S S S S S H      E S S S S S S H      E E S S S S E E S S S S
|--------------------|--------------------|--------------------------|
|--------------------|--------------------|--------------------------|
|-4-4-4-4-4-4-4-4----|-2-2-2-2-2-2-2-0----|-0-0-0-0-0-0--------------|
|--------------------|--------------------|-------------2-2-2-2-2-2--|


  E E S S S S E E S S S S   E S S S S S S Q  S S E   E S S S S S S Q  S S E
|-------------------------|------------------------|-------------------------|
|-------------------------|------------------------|-------------------------|
|-2-2-2-2-2-2-------------|-4-4-4-4-4-4-4-4--4-4-4-|-------------------------|
|-------------4-4-4-4-4-4-|------------------------|-5-5-5-5-5-5-5-5--5-5-5--|


  E S S S S S S H      E E E E E E E E   E S S S S S S Q  S S E
|--------------------|-----------------|------------------------|
|--------------------|-----------------|------------------------|
|--------------------|-----------------|------------------------|
|-2-2-2-2-2-2-2-2----|-2-2-4-4-5-5-7-7-|-9-9-9-9-9-9-9-9--9-9-9-|


  E S S S S S S Q  S S E   E S S S S S S H      E E E E E E E E
|------------------------|--------------------|-----------------|
|------------------------|--------------------|-----------------|
|-0-0-0-0-0-0-0-0--0-0-0-|--------------------|-----------------|
|------------------------|-2-2-2-2-2-2-2-2----|-2-2-4-4-5-5-7-7-|


  E E S S S S E E S S S S   E E S S S S E E S S S S   E E S S S S E E S S S S
|-------------------------|-------------------------|--------------------------|
|-------------------------|-------------------------|--------------------------|
|-------------------------|-------------------------|--------------------------|
|-0-0-0-0-0-0-8-8-8-8-8-8-|-5-5-5-5-5-5-7-7-7-7-7-7-|-0-0-0-0-0-0-8-8-8-8-8-8--|


  E E S S S S E E S S S S   Q  Q  H      Q  Q  H      Q  Q  H
|-------------------------|------------|------------|------------|
|-------------------------|------------|------------|------------|
|-------------------------|------------|------------|------------|
|-5-5-5-5-5-5-7-7-7-7-7-7-|-0----------|-0----------|-0----------|


            Verse
  W          E E S S S S E E S S S S   E E S S S S E E S S S S
|----------|-------------------------|--------------------------|
|----------|-------------------------|--------------------------|
|----------|-------------------------|--------------------------|
|-0--------|-0-0-0-0-0-0-0-0-0-0-0-0-|-8-8-8-8-8-8-8-8-8-8-8-8--|


   E  E  S  S  S  S  E  E  S  S  S  S
|-------------------------------------|
|-------------------------------------|
|-------------------------------------|
|-10-10-10-10-10-10-10-10-10-10-10-10-|


  E E S S E E E E E   E E S S S S E E S S S S
|-------------------|-------------------------|
|-------------------|-------------------------|
|-0-0-0-0-0---------|-------------------------|
|-----------7-5-3-2-|-0-0-0-0-0-0-0-0-0-0-0-0-|


  E E S S S S E E S S S S   E E S S S S E E S S S S   E E S S E E E E E
|-------------------------|-------------------------|-------------------|
|-------------------------|-------------------------|-------------------|
|-3-3-3-3-3-3-3-3-3-3-3-3-|-5-5-5-5-5-5-5-5-5-5-5-5-|-------------------|
|-------------------------|-------------------------|-5-5-5-5-5-7-5-3-2-|


  E E S S S S E E S S S S   E E S S S S E E S S S S   E E S S S S E E S S S S
|-------------------------|-------------------------|--------------------------|
|-------------------------|-0-0-0-0-0-0-0-0-0-0-0-0-|--------------------------|
|-------------------------|-------------------------|-2-2-2-2-2-2-2-2-2-2-2-2--|
|-2-2-2-2-2-2-2-2-2-2-2-2-|-------------------------|--------------------------|


  E E E E E E E E   E E S S S S E E S S S S   E E S S S S E E S S S S
|-----------------|-------------------------|--------------------------|
|-----------------|-------------------------|-0-0-0-0-0-0-0-0-0-0-0-0--|
|-4-2-2-0-0-------|-------------------------|--------------------------|
|-----------4-4-2-|-2-2-2-2-2-2-2-2-2-2-2-2-|--------------------------|


                                             Chorus
                                              |-3-| |-3-| |-3-| |-3-|
  E E S S S S E E S S S S   E E E E E E E E   E E E E E E E E E E E E
|-------------------------|-----------------|--------------------------|
|-------------------------|-----------------|-2-2-2-2-2-2-2-2-2-2-2-2--|
|-2-2-2-2-2-2-2-2-2-2-2-2-|-4-2-2-0-0-------|--------------------------|
|-------------------------|-----------4-4-2-|--------------------------|


  |-3-| |-3-| |-3-| |-3-|   |-3-| |-3-| |-3-| |-3-|
  E E E E E E E E E E E E   E E E E E E E E E E E E
|-------------------------|-------------------------|
|-------------------------|-------------------------|
|-3-3-3-3-3-3-3-3-3-3-3-3-|-5-5-5-5-5-5-5-5-5-5-5-5-|
|-------------------------|-------------------------|


  |-3-| |-3-| |-3-| |-3-|   |-3-| |-3-| |-3-| |-3-|
  E E E E E E E E E E E E   E E E E E E E E E E E E
|-------------------------|-------------------------|
|-------------------------|-------------------------|
|-------------------------|-------------------------|
|-5-5-5-5-5-5-5-5-5-5-5-5-|-0-0-0-0-0-0-0-0-0-0-0-0-|


  |-3-| |-3-| |-3-| |-3-|   |-3-| |-3-| |-3-| |-3-|
  E E E E E E E E E E E E   E E E E E E E E E E E E
|-------------------------|-------------------------|
|-------------------------|-------------------------|
|-3-3-3-3-3-3-3-3-3-3-3-3-|-5-5-5-5-5-5-5-5-5-5-5-5-|
|-------------------------|-------------------------|


  |-3-| |-3-| |-3-| |-3-|   |-3-| |-3-| |-3-| |-3-|
  E E E E E E E E E E E E   E E E E E E E E E E E E
|-------------------------|-------------------------|
|-------------------------|-------------------------|
|-------------------------|-7-7-7-7-7-7-7-7-7-7-7-7-|
|-5-5-5-5-5-5-5-5-5-5-5-5-|-------------------------|


  |-3-| |-3-| |-3-| |-3-|    |--3--|  |--3--|  |--3--|  |--3--|
  E E E E E E E E E E E E    E  E  E  E  E  E  E  E  E  E  E  E
|-------------------------|-------------------------------------|
|-------------------------|-------------------------------------|
|-------------------------|-------------------------------------|
|-8-8-8-8-8-8-8-8-8-8-8-8-|-10-10-10-10-10-10-10-10-10-10-10-10-|


  |-3-| |-3-| |-3-| |-3-|   |-3-| |-3-| |-3-| |-3-|
  E E E E E E E E E E E E   E E E E E E E E E E E E
|-------------------------|-------------------------|
|-------------------------|-------------------------|
|-0-0-0-0-0-0-0-0-0-0-0-0-|-------------------------|
|-------------------------|-0-0-0-0-0-0-0-0-0-0-0-0-|


  |-3-| |-3-| |-3-| |-3-|    |--3--|  |--3--|  |--3--|  |--3--|
  E E E E E E E E E E E E    E  E  E  E  E  E  E  E  E  E  E  E
|-------------------------|-------------------------------------|
|-------------------------|-------------------------------------|
|-------------------------|-------------------------------------|
|-8-8-8-8-8-8-8-8-8-8-8-8-|-10-10-10-10-10-10-10-10-10-10-10-10-|


                   Outro
  E E E E E E E E   H    +Q.   E   W          H    +Q.   E
|-----------------|--------------|----------|--------------|
|-----------------|--------------|----------|--------------|
|-0-0-0-0-0-0-0---|--------------|----------|--------------|
|-----------------|-0----(0)---0-|-6--------|-0----(0)---0-|


  H    H      H    +Q.   E   W          H    +Q.   E
|-----------|--------------|----------|--------------|
|-----------|--------------|----------|--------------|
|-----------|--------------|-1--------|--------------|
|-5----1----|-0----(0)---0-|----------|-0----(0)---0-|


  H    H      H    H
|-----------|-----------*|
|-----------|-----------*|
|-0---------|-----------*|
|------1----|-0---------*|




--------------------------------------------------------------------------------


Duration Legend
---------------
W - whole; H - half; Q - quarter; E - 8th; S - 16th; T - 32nd; X - 64th; a - acciaccatura
+ - note tied to previous; . - note dotted; .. - note double dotted
Uncapitalized letters represent notes that are staccato (1/2 duration)
Irregular groupings are notated above the duration line
Duration letters will always appear directly above the note/fret number it represents the
duration for.  Duration letters with no fret number below them represent rests.  Multi-
bar rests are notated in the form Wxn, where n is the number of bars to rest for.  Low
melody durations appear below the staff

Tablature Legend
----------------
 h   - hammer-on
 p   - pull-off
 b   - bend
 pb  - pre-bend
 r   - bend release (if no number after the r, then release immediately)
 /\  - slide into or out of (from/to "nowhere")
 s   - legato slide
 S   - shift slide
 - natural harmonic
[n]  - artificial harmonic
n(n) - tapped harmonic
 ~   - vibrato
 tr  - trill
 T   - tap
 TP  - trem. picking
 PM  - palm muting
\n/  - tremolo bar dip; n = amount to dip
 \n  - tremolo bar down
 n/  - tremolo bar up
/n\  - tremolo bar inverted dip
 =   - hold bend; also acts as connecting device for hammers/pulls
 <> - volume swell (louder/softer)
 x   - on rhythm slash represents muted slash
 o   - on rhythm slash represents single note slash

Misc Legend
-----------
 |  - bar
||  - double bar
||o - repeat start
o|| - repeat end
*|  - double bar (ending)
 :  - bar (freetime)
 $  - Segno
 &  - Coda
Tempo markers -  = BPM(8/16=s8/s16), where s8 = swing 8ths, s16 = swing 16ths

Suggest correction
Creating personal tab
Creating personal tab
You can edit any tab online and save it as your Personal.

You can edit, replace or remove any tab part or add personal notes – all changes will be seen only by you.

Personal tabs can be accessed anytime from any device, even offline.
Learn more »
Give kudos to tab author, rate the tab!
1 2 3 4 5
comments
print report bad tab
guest
You may want to rate the tab now too:
select rating
Wanna post a correction for this tab? Suggest correction