Oops, an error
Loading. Please wait.

Drive Tab

version 1
version 1

Intro

Whole song

505 views 1 this week
4 commentsread comments
1 2 3 4 5
worth learning
x 3
add to favorites
launch autoscroll
font size
0
reset
how to read this tab
guitar tuner
Tab Pro tools
  • play this tab
  • loop segment
  • change instrument
  • show fretboard
  • metronome
Autoscroll
slow
fast
+/-
esc
set tempo
stop
Contributor
Difficulty
Tuning
intermediate
D A D G B E
|===============|
|     Drive     |
|   Blind Iris  |
|===============|

Awesome song, and I know it's old and my tabs are a **bit** late, but better
late than never, eh? :)

++Update 11 December 2010: Sorry, I was way off with the last tab.
Turns out it's actually in Drop D (or a tone down, but this tab is in
drop D) which is why most of it sound so wrong! Anyway, all apologies to
anyone I irritated with the last awful tab. I'm doing this on my electric
now, and it's definitely a hell of a lot closer now. Thanks!
P.S. There are only 2 guitars because they double track, so
I will have re-written some of the parts so that they are only played
on one guitar.++

Anyway, enjoy!
Please rate and comment! :D

====

Drop-D tuning (eBGDAD)
2 Guitars

h   = hammer on
p   = pull off
/   = slide
x   = deadened string
PM  = palm mute
(#) = let the note ring
~   = whammy/vibrato
b   = bend
~>  = use the whammy bar to bend the pitch up (to the next fret if there is a
      number, otherwise bend it up half a semitone)
~<  = same as above to bend the pitch down
r   = release bend/whammy bar bend

====


Intro
e|------------------------------------------|
B|--7----(7)----7h8p7--7----7h8p7--7--(7)---|
G|--7----(7)----7-(7)--7----7-(7)--7--(7)---|
D|------------------------------------------|
A|------------------------------------------|
D|------------------------------------------|


====

Verse 1
Guitar 1
e|---------------------------------------------------------|
B|---15-13-12----12----------------------------------------|
G|------------14----14-12--------------------------12-13---|
D|------------------------16---12-------------12-----------|
A|-----------------------------------12-14-15--------------|
D|---------------------------------------------------------|

Guitar 2
e|---------------------------------------------------------|
B|------------15---------15--------------15-------15~>16---|
G|---------------------------------------------------------|
D|---12--12--------12-----------12--12-------12------------|
A|---------------------------------------------------------|
D|---------------------------------------------------------|


====

Bridge 1
e|-----------------------------------------------------------------|
B|-----------------------------------------------------------------|
G|-----------------------------------------------------------|
D|---0-------------0-------------0-------------0-------------------|
A|---0--0-0-0-5~>--0--0-0-0-3~>--0--0-0-0-2~>--0--0-0-0-0-0-0-0----|
D|---0--0-0-0-5~>--0--0-0-0-3~>--0--0-0-0-2~>--0--0-0-0-2-0-2-0----|
PM     |-----|       |-----|       |-----|       |-------------|

====

Verse 2
e|---------------------------------|
B|---------------------------------|
G|-----------5-----5--4------5\4---|
D|-----------x-----x--x------x-----|
A|-----------3-----3--2------3\2---|
D|---0-0-0-0---0-0-------0-0-------|

====

Pre-chorus chords
e|-------------|
B|-------------|
G|-------------|
D|--5-----3----|
A|--5-----3----|
D|--5-----3----|

====

Chorus 1
e|--------------------------------------|
B|--------------------------------------|
G|-----11----12-11---5------------------|
D|--12----12---------5-----5------3-----|
A|--0----------------3-----5----3-3-----|
D|--0----------------------5----3-3-----|
PM                       |-|

====

Verse 3
Part 1
Guitar 1 (Reverb and delay) x2
e|------------------------------------|
B|------------------------------10----|
G|--11b12r11--------11b12r11----------|
D|-----------12--------------12-------|
A|------------------------------------|
D|------------------------------------|

Part 2
Guitar 1  x6
e|-----------------------------|
B|-----------------------------|
G|-----------------------------|
D|-----------------------------|
A|---0-0-0-0-0-0-0-----00------|
D|---0-0-0-0-0-0-0-----00------|
PM  |--------------------|

Guitar 2  x6
e|-----------------------------|
B|-----------------------------|
G|-----------5----5-4---5\2----|
D|-----------x----x-x---x------|
A|-----------3----3-2---3\2----|
D|-----------------------------|

====

Chorus 2 same as Chorus 1, last few chords are
e|------------------------------|
B|------------------------------|
G|--5---------------------------|
D|--5------5---3----2---0-------|
A|--3------5---3----2---0-------|
D|---------5---3----2---0-------|

====

Solo - Apologies, the whole thing is wrong, because I tabbed it in
standard tuning on a badly acoustic guitar.
I will re-tab it ASAP, but I know that it starts
with a 13b15 on the B string ;)


Please rate and comment what I have so far!
comments
We did not receive enough feedback on this tab! Please rate:
print report bad tab
1 2 3 4 5
4 comments total. Showing first comments.
+1 reply
Mainer wrote on June 26 2010, 12:46 pm

wow, I look at this again, and it ain't too bad

0 reply
j6off9 wrote on July 15 2010, 08:08 am

wow, I look at this again, and it sounds wrong

0 reply
ruletheneck wrote on July 17 2010, 03:31 am

check your guitar's in tune and try again. also, tell me what part(s) is/are wrong and i'll correct them on my electric. douchebag.

I want to post or [tab]
guest
You may want to rate the tab now too:
select rating
Please do not post tabs as comments. Select "correction" instead!