Oops, an error
Loading. Please wait.

Black Horse Blues tab

229 views 12 this week
no commentswrite comment
1 2 3 4 5
3 more votes to show rating
add to favorites
×
Save as Personal and add changes to this tab that will be seen only by you. Learn more ›
×
You can save this tab as Personal to edit and correct it or add notes. All changes will be seen only by you. Learn more »
launch autoscroll
font size
0
reset
how to read this tab
guitar tuner
edit
Autoscroll
slow
fast
+/-
esc
set tempo
stop
Original recording ref 2543-1 

Note occasional long (6 beat) bars marked as 6/4.


[Introduction]

          C                 0:03.0    
e |-------|----3-2-1--0-------|------0---------|---3-2-1-0-------|
B |-------|----5-4-3--1-------|----4---1-------|---5-4-3-1-------|
G |-------|-----------0-------|------0---------|-----------------|
D |-------|-------------------|----4---2-------|-----------------|
A |-------|-------------------|----------------|-----0---3-------|
E |-0-1-2-|-3-----------3-2-1-|-0--------0-1-2-|-3---------3-2-1-|


  <-- -------6/4----------> 
 0:06.62                    F7                                  C
e |-----0-----0-----0------|-----------------|-----------------|-0---0-----0----|
B |---4---1-4---1-4---1----|-----------------|-----------------|---4---1-4----1-|
G |-----0-----0-----0------|-----------------|-----------------|-0---0-----0----|
D |---4---2-4---2-4---2----|---1-0---1-0-----|---1-0---1-0---2-|---4---2-4----2-|
A |------------------------|-0-----3-----3---|-------3-----3---|----------------|
E |-0--------------------3-|---------------0-|-1---------------|----------------|


  0:14.3             G                               C
e |---0-----0-------|--3-1-0---------|----1--0------|----3--2--1-|----8--8--3-|
B |-4---1-4---------|--------3-1-0---|----------3---|-1--5--4--3-|----8--8--5-|
G |---0-----0-------|--------------2-|-0--2--0------|------------|------------|
D |-4---2-4---------|----------------|-0--------3-2-|------------|------------|
A |-----------------|----------------|--------------|-------0--2-|-8----------|
E |-----------0-1-2-|-3--------------|--------------|----3-------|------------|
  C

 
[Verse 1]   
                       
 0:22.7 
e |----3-2-1--0-----------|---------0---------------|----3-2-1--0--------|
B |----5-4-3--1-----------|------4-----1------------|----5-4-3--1--------|
G |-----------0-----------|---------0---------------|--------------------|
D |-----------------------|------4-----2------------|--------------------|
A |-----------------------|-------------------------|------0----3--------|
E |-3-------------3--2--1-|--0-------------0--1--2--|-3------------3-2-1-|
   Tell me what time  the trains come through your  town


 28.1                                        F7
e |-------0--------0---|-----0--------0-----|---------------------|-------------------------|
B |----4-----1--4-----1|--4-----1--4--------|---------------------|-------------------------|
G |-------0--------0---|-----0--------0-----|---------------------|-------------------------|
D |----4-----2--4-----2|--4-----2--4--------|---1-0----1--0-------|---1--0------1--0------2-|
A |--------------------|--------------------|-0------3------3-----|--------3-----------3----|
E |-0------------------|-----------------3--|------------------0--|-1-----------------------|
                                      I wanna know what time do the trains come through your 

 C                                                          
 0:34.83                                         G
e |----0------0--------0-----|---0-----0--------|---3--1-0------------|-------1----0-------|
B |--------4-----1--4-----1--|-4---1-4----------|-----------3--1-0----|---------------3----|
G |----0------0--------0-----|---0-----0--------|-------------------2-|-0-----2----0-------|
D |--------4-----2--4-----2--|-4---2-4----------|---------------------|-0-------------3--2-|
A |--------------------------|------------------|---------------------|--------------------|
E |--------------------------|------------0-1-2-|-3-------------------|--------------------|
  town                                   I wanna laugh and talk with a long-haired teasin' br- 

  C
 0:41.95   
e |----3--2--1-|-------------0--|---0--0-----|
B |-1--5--4--3-|-----------1-1--|---1--1-----|
G |------------|---------0---0--|---0--0-----|
D |------------|---0-1-2--------|------------|
A |-------0--2-|-3--------------|-3----------|
E |----3-------|----------------|----------3-|
  -own.                                   One .. 


[Verse 2]

C
One goes south at eight and it's one goes north at nine.
F7                                            C
One goes south at eight and one goes north at nine.
        G                                           C
I got a hour to talk with that long-haired brown of mine.


[Instrumental]

  <--------6/4---------->
  1:06.2  
e |----3--2--1--0-------|------0--0-------|---3-2-1-0-------|--0---0---------|
B |-1--5--4--3--1-------|---1--1--1-------|---5-4-3-1-------|----4---1-------|
G |---------------------|------0--0-------|-----------------|--0---0---------|
D |-2---------------0-1-|-2---------------|-----------------|----4---2-------|
A |-------0--2--3-3-----|-----------------|-------2---------|----------------|
E |---------------------|-----------0-1-2-|-3---------3-2-1-|-0--------0-1-2-|
 ..mine

  1:13.8                              F7
e |--3-2-1-0-------|---0---0----0--0-|-----------------|------------------|
B |--5-4-3-1-------|-----4----1-1--1-|-----------------|------------------|
G |----------------|---0---0---------|-----------------|----------------0-|
D |----------------|-----4----2------|---1-0---1-0-----|---1-0---1-0---2--|
A |----0---3-------|-----------------|-0-----3-----3---|-------3-----3----|
E |-3--------3-2-1-|-0---------------|---------------0-|-1----------------|

  C                                                          
  1:20.5                               G
e |-0---0-----0-----|-0-----0--------|---3-1-0---------|----1--0------|
B |---4---1-4---1-4-|---1-4----------|---------3-1-0---|----------3---|
G |-0---0-----0-----|-0-----0--------|---------------2-|-0--2--0----0-|
D |---4---2-4---2-4-|---2-4----------|-----------------|-0--------3---|
A |-----------------|----------------|-----------------|----------2---|
E |-----------------|----------0-1-2-|-3---------------|--------------|
 
   C
1:26.9        
e |----3--2--1-|-----0------0--|----------------|----------------|----------------8-----|
B |-1--5--4--3-|---1-1----1-1--|-6-6-6-6-6-6--6-|-6-8-8-8-8-8--8-|-8-10-10-10-10--10-10-|
G |------------|-----0------0--|-7-7-7-7-7-7--7-|-7-9-9-9-9-9--9-|-9-10-10-10-10-----10-|
D |------------|---------------|----------------|----------------|----------------------|
A |-------0--2-|-3-------------|----------------|----------------|----------------------|
E |----3-------|-------3-------|----------------|----------------|----------------------|

  1:35.21 
e |-------------|-3-5-3-----3-----|-3-3-2-2--1-1-0---|---0-0-0--------|--0--0----0--|
B |-10-8--5-5-5-|-------4-5---0---|-5-5-4-4--------1-|---1-1-1--------|--1--1----1--|
G |-10-9--5-5-5-|---------------0-|------------------|-0--------------|--0----------|
D |-----------5-|-----------------|------------------|-----------0-1-2|-------------|
A |-------3-----|-----------------|------------------|---------3------|-------------|
E |-------------|-----------------|------------------|----------------|--------3----|
                                                                                  Go
 
[Verse 3]

C
Go 'n get my black horse and saddle up my grey mare.
   F7                                       C 
Go get my black horse and saddle up my grey mare.
           G                                         C
I'm goin' off to my good gal, she's in the world somewhere.


[Instrumental]

  C
  2:01.4                              
e |---3--2--1-|-----0--0-------|---3-2-1-0-------|---0---0---------|---3-2-1-0-------|
B |---5--4--3-|-1-1-1--1-------|---5-4-3-1-------|-----4---1-------|---5-4-3-1-------|
G |-----------|-----0--0-------|-----------------|---0---0---------|-----------------|
D |-----------|----------------|-----------------|-----4---2-------|-----------------|
A |-3----0--2-|-3--------------|-------2---------|-----------------|-----0---3-------|
E |-----------|----------0-1-2-|-3---------3-2-1-|-0---------0-1-2-|-3---------3-2-1-|
  .where
                                                                       
  2:09.3                            F7                                  C
e |------0-----0----|---0------0---|-----------------|-----------------|--0---0-----0---|
B |----4---1-4----1-|-4---1-4------|-----------------|-----------------|----4---1-4---1-|
G |------0-----0----|---0------0---|-----------------|-----------------|--0---0-----0---|
D |----4---2-4----2-|-4---2-4------|---1-0---1-0-----|---1-0---1-0---2-|----4---2-4---2-|
A |-----------------|--------------|-0-----3-----3---|-------3-----3---|----------------|
E |-0---------------|------------3-|---------------0-|-1---------------|----------------|

  G                
2:17.126             G                              C 
e |---0-----0-------|---3-1-0---------|----1--0----|----3--2--1-|----0-----0-|
B |-4---1-4---------|---------3-1-0---|----------3-|-1--5--4--3-|----1-----1-|
G |---0-----0-------|---------------2-|-0--2--0----|------------|----0-----0-|
D |-4---2-4---------|-----------------|----------3-|------------|------------|
A |-----------------|-----------------|------------|-------0--2-|-3----------|
E |-----------0-1-2-|-3---------------|------------|----3-------|-------3----|
                                                                              I... 
 
[Verse 4]

C
I can't count the times that I was so dissatisfied
        F7                                    C
I can't count the times that I was so dissatisfied
           G                                            C
Sugar, the blues ain't on me, but things ain't goin' on right.


[Outro]

  2:42.5
e |----3--2--1-|----0-----0-|---6/8-8-8-8-8-|-8-5-5-5-3-3-3-|--3-3-5-3-----3-0-|
B |-1--5--4--3-|----1-----1-|---------------|---------------|----------4h5---4-|
G |------------|----0-----0-|---------------|---------------|------------------|
D |------------|------------|---------------|---------------|------------------|
A |-------0--2-|-3----------|-3-------------|---------------|------------------|
E |----3-------|-------3----|---------------|---------------|------------------|
 .right 
 
2:50.45            C11
e |---------------|-3----------|
B |--1-----1------|-3----------|
G |----2-0--------|-3----------|
D |----------0--0-|-3----------|
A |--------3------|-3----------|
E |---------------|------------|



************************************

| h  Hammer-on
| /  Slide up

************************************

            
            
Suggest correction
Creating personal tab
Creating personal tab
You can edit any tab online and save it as your Personal.

You can edit, replace or remove any tab part or add personal notes – all changes will be seen only by you.

Personal tabs can be accessed anytime from any device, even offline.
Learn more »
Give kudos to tab author, rate the tab!
1 2 3 4 5
comments
print report bad tab
guest
You may want to rate the tab now too:
select rating
Wanna post a correction for this tab? Suggest correction