Oops, an error
Loading. Please wait.

Cheatem Street tab

1,395 views 3 this week
2 commentsread comments
1 2 3 4 5
1 last vote to show rating
add to favorites
×
Save as Personal and add changes to this tab that will be seen only by you. Learn more ›
×
You can save this tab as Personal to edit and correct it or add notes. All changes will be seen only by you. Learn more »
launch autoscroll
font size
0
reset
how to read this tab
guitar tuner
edit
Autoscroll
slow
fast
+/-
esc
set tempo
stop
Difficulty
Play according to the rhythm of the song.
Tocar de acuerdo al ritmo de la canción.

It was late one night....
e-----2/5-5~---5/7-10-9-7-7-7-7-7-7-----------------|
B-----2/5-5~---5/7-10-9-7-7-7-7-7-7-----------------|
G-----------------------7-7-7-7-7-7-----------------| (Intro, Verse & Chorus)
D-----------------------9-9-9-9-9-9-----------------|
A-0-0-------0-----------9-9-9-9-9-9-----------------|
E-----------------------7-7-7-7-7-7-7p9/------------|

I guess you're stuck with...
e-5-4-2---------0-2-4--5-4-2-------------------------------|
B-7-5-3----3-2--2-3-5--7-5-3-------------------------------|
G-7-6-4---4---4-2-4-6--7-6-4-------------------------------| (Pre-Chorus)
D-7-6-4--4------2-4-6--7-6-4-------------------------------|
A-5-4-2-2-------0-2-4--5-4-2-------------------------------|
E----------------------------------------------------------|

is a very good song.


my.mind.is.manipulated@hotmail.com

            
            
Suggest correction
Creating personal tab
Creating personal tab
You can edit any tab online and save it as your Personal.

You can edit, replace or remove any tab part or add personal notes – all changes will be seen only by you.

Personal tabs can be accessed anytime from any device, even offline.
Learn more »
Give kudos to tab author, rate the tab!
1 2 3 4 5
comments
print report bad tab
2 comments total.
0 reply
ruslruslrusl 10 Mar 30, 2011 12:55 PM

Small correction to the intro/verse riff:

e----------5--5/7/10-9---7--7--7-7-----|
B----5/7---5--5/7/10-10--7--7--7-7-----|
G----4/6-----------------7--7--7-7-----|
D------------------------9--9--9-9-----|
A-0------0---0-----------9--9--9-9-----|
E------------------------7--7--7-7--9\-|


Alternatively, you can play:
e----0h2---5--5/7/10-9 --7--7--7-------|
B----0h2---5--5/7/10-10--7--7--7-------|
G------------------------7--7--7-------|
D------------------------9--9--9-------|
A-0------0---0-----------9--9--9-------|
E------------------------7--7--7--7--9-|


But I think it sounds better using the G and B strings.
I also like to play it with a capo on the 2nd fret so I can strum G and Am chords. If you do that, you have to use the first riff shown replacing the "A-0" notes with "E-3". Makes it a little trickier to make them ring out, but still sounds great.

0 reply
ruslruslrusl 10 Mar 30, 2011 12:57 PM

Also, the song is actually "Cheetum Street", not "Cheatem".

guest
Wanna post a correction for this tab? Suggest correction