Oops, an error
Loading. Please wait.

Walking Blues Tab

6,690 views 1 this week
no commentswrite comment
1 2 3 4 5
1 last vote to show rating
add to favorites
launch autoscroll
font size
0
reset
how to read this tab
guitar tuner
Autoscroll
slow
fast
+/-
esc
set tempo
stop
Help us to improve Ultimate-Guitar.com Take our survey!
×
Author
this is some blues song i found on an old
45 but the middle has been punched out so
i really dont know who wrote all thats written
on it blin......lking blues
 know there numeroues "blind" bluesmen but i'm
gunna do for blind willie mctell......definatly
the coolest :)

 I play this figure style but it can easily
be done with a pick or a combination or (woot
country stylings),

 NOTE! bass notes are played with a down pick
the higher notes with an up pick :)

             riff 1
e -------------------------------|
a --------1-1--------------------|
d ------------------0h2----------|
g -------------------0h2---------|
b ---0-0-------0-0---------------|
e -------------------------------|

              riff 2
e -------------------------------|
a --------1-1-------3-3----------|
d -------------------------------|
g ---2-2-------2-2---------------|
b ---3-3-------3-3---------------|
e -------------------------------|


              riff 3
e -------------------------------|
a --------3-3-------3-3----------|
d -------- 2-2-------3-3---------|
g ---0-0-------0-0---------------|
b ---0-0-------0-0---------------|
e -------------------------------|


riff 1  x4
riff 2  x2
riff 1  x2
riff 3  x2
riff 1  x2
Suggest correction
Give kudos to tab author, rate the tab!
1 2 3 4 5
comments
print report bad tab
guest
You may want to rate the tab now too:
select rating
Wanna post a correction for this tab? Suggest correction