Oops, an error
Loading. Please wait.

Baby One More Notch Guitar Pro

version 1
version 1

Whole song

Interactive

5,856 views 1 this week
3 commentsread comments
1 2 3 4 5
1 last vote to show rating
add to favorites
guitar tuner
Autoscroll
slow
fast
+/-
esc
set tempo
stop
Help us to improve Ultimate-Guitar.com Take our survey!
×
Author
Difficulty
Filesize
Instruments
intermediate
91 Kb
rhythm guitar, lead guitar #1, lead guitar #2, bass, percussion
"Baby One More Notch"
demo version
Play now

or get full version for Free

×
Get full version now!
To learn and play this song
in Tab Pro, start free trial
Start free trial

or get $10 off Welcome Bonus

Get welcome bonus
Get access to Tab Pro version of “Baby One More Notch”!
Tab Pro is a premium guitar tab service, available on PC, Mac, iOS and Android
START FREE TRIAL
Your download will start in 7 seconds
×
Like this song? We have more like this. Follow us on Facebook for more great tabs and guitar-related content
To download “Baby One More Notch” Guitar Pro tab click button below
Please note that you must have Guitar Pro software installed on your
computer in order to view this file.
Suggest correction
Give kudos to tab author, rate the tab!
1 2 3 4 5
comments
report bad tab
3 comments total.
0 reply
SEbI666 237 Oct 28, 2010 12:30 PM

only thing missing are the palm mutes... rest is exelent

-1 reply
JackMcGuitar 52 Dec 05, 2010 09:51 PM

The fill in the breakdown has a 5 on the low B insated of open B. See below.
Not really a big deal but it's the only mistake I found. Excelent tab. Thankyou very much!

C#-----------------------------
G#-----------------------------
E------------------------------
B------------------------------
F#--0-0---0---8-----7--5--4----
B---0-0---0------0-------------

INSTEAD OF

C#-----------------------------
G#-----------------------------
E------------------------------
B------------------------------
F#--0-0---0---8-----7--5--4----
B---0-0---0------0-------------

Thanks again man!

+1 reply
JackMcGuitar 52 Dec 05, 2010 09:53 PM

The fill in the breakdown has a 5 on the low B insated of open B. See below.
Not really a big deal but it's the only mistake I found. Excelent tab. Thankyou very much!

C#-----------------------------
G#-----------------------------
E------------------------------
B------------------------------
F#--0-0---0---8-----7--5--4----
B---0-0---0------5-------------

INSTEAD OF

C#-----------------------------
G#-----------------------------
E------------------------------
B------------------------------
F#--0-0---0---8-----7--5--4----
B---0-0---0------0-------------

Thanks again man!

guest
You may want to rate the tab now too:
select rating