Oops, an error
Loading. Please wait.

Confessions Tab

version 2
version 2

Whole song

1,779 views 1 this week
1 commentread comment
1 2 3 4 5
please rate
add to favorites
launch autoscroll
font size
0
reset
how to read this tab
guitar tuner
Autoscroll
slow
fast
+/-
esc
set tempo
stop
Help us to improve Ultimate-Guitar.com Take our survey!
×
Author
-----------------------------------------------------------------------------------
                                 Confessions
-----------------------------------------------------------------------------------
Band: Blind Witness
Song: Confessions 
Album: Means/Blind Witness
record: Torque recording
Myspace: myspace.com/blindwitness

Tabbed by - Alex.Martin -
Email- Alexspinlimit@hotmail.com

Here is the complete song i am pretty sure everything is at the right place enjoy!

Guitar 1 only
D|-------|--------------------------------------------------(2x)|
A|-------|------------------------------------------------------|
F|-------|------------------------------------------------------|
C|-5-3-0-|----------------------------------77777777-55555555---|
G|-5-3-0-|-000-000-00-000-000-00-0-000-0-00-xxxxxxxx-xxxxxxxx---|
C|-5-3-0-|-000-000-00-000-000-00-0-000-0-00-55555555-33333333---|
           *** *** ** *** *** ** * *** * **

D|---------|
A|---------|
F|---------|
C|---------|
G|-000-000-|
C|-000-000-|
   *** ***
                                                                      __
D|------------------------------------------------------------------|  -
A|------------------------------------------------------------------|  -
F|------------------------------------------------------------------|  -
C|-10-8-7--7--------------------10-----10----------------10-8-7--7--|  -
G|-------10-8-00-000-0-0-0-0-7h8---7h8----00-000-0-0-0-0-------10-8-|  -
C|------------00-000-0-0-0-0--------------00-000-0-0-0-0------------|  -
              ** *** *   *                ** *** *   *                -
                                                                     -
                                                                  (4x)
D|------------------------------|                                 -
A|------------------------------|                                -
F|------------------------------|                            ---- 
C|--------------------10-----10-|                          ----  
G|-00-000-0-0-0-0--7-8-----7-8--|                        ---- 
C|-00-000-0-0-0-0-7-------7-----|                      ----
   ** *** *   *

D|-----------------------------------------(2x)|
A|---------------------------------------------|
F|---------------------------------------------|
C|-8---8-7h8-7---7h8-7---7-----------3-----5-2-|
G|-8---------7---------8---0---7-7-8-3---3-----|
C|-8-0-------7-0-----------0-0-------3-0-------|
     *         *             *         *

D|-------------------------------------------------------------------(2x)|
A|-----------------------------------------------------------------------|
F|-----------------------------------------------------------------------|
C|-8-8-88---------8-8-888---------8-8-888---8-7h8------------------------|
G|-8-8-88---8-7h8-8-8-888---8-7h8-8-8-888---------12-10-8-10-12-10-8-7---|
C|-8-8-88-0-------8-8-888-0-------8-8-888-0------------------------------|
          *               *               *

                                                                   
D|------------------------------------------------------------------------| 
A|------------------------------------------------------------------------| 
F|------------------------------------------------------------------------| 
C|-------10-8-7--7----------------------10---10-----------------10-8-7----| 
G|-0-0-0-------10--8-0-0-000-0-0-0-0-7h8--7h8---0-0-000-0-0-0-0--------10-| 
C|-0-0-0-------------0-0-000-0-0-0-0------------0-0-000-0-0-0-0-----------| 
     *               * * *** *   *              * * *** *   *              
                                                                          
                                                                        
D|-------------------------------|                                     
A|-------------------------------|                                    
F|-------------------------------|                                  
C|---------------------10-----7--|                                
G|-0-0-000-0-0-0-0--7h8----7h8---|                              
C|-0-0-000-0-0-0-0-7------5------|                            
   * * *** *   *             



D|------------------------------------------------------------------------|
A|------------------------------------------------------------------------|
F|------------------------------------------------------------------------|
C|-------10-8-7--7----------------------10---10-----------------10-8-7----|
G|-0-0-0-------10--8-0-0-000-0-0-0-0-7h8--7h8---0-0-000-0-0-0-0--------10-|
C|-0-0-0-------------0-0-000-0-0-0-0------------0-0-000-0-0-0-0-----------|
     *               * * *** *   *              * * *** *   *


D|-------------------------------|
A|-------------------------------|
F|-------------------------------|
C|---------------------10-----7--|
G|-0-0-000-0-0-0-0--7h8----7h8---|
C|-0-0-000-0-0-0-0-7------5------|
   * * *** *   *             

D|-------------------|
A|-------------------|
F|-------------------|
C|-------------------|
G|-3333333333333333--|
C|-3333333333333333--|
   ****************


D|--------------------------------------------------(2x)|
A|------------------------------------------------------|
F|------------------------------------------------------|
C|----------------------------------77777777-55555555---|
G|-000-000-00-000-000-00-0-000-0-00-xxxxxxxx-xxxxxxxx---|
C|-000-000-00-000-000-00-0-000-0-00-55555555-33333333---|
   *** *** ** *** *** ** * *** * **


D|---------------------------------(2x)|
A|-------------------------------------|
F|-------------------------------------|
C|-------------------------------------|
G|-0-00-0-00-0--00-00-0000--00-0-00-0--|
C|-0-00-0-00-0--00-00-0000--00-0-00-0--|
   * ** * ** *  ** ** ****  ** * ** * 


D|-------------------------------------------|(3x)
A|-----------------13--9-9---------------11--|
F|-7-10-9---10-12----12---12-12-8-8-10-10----|
C|--------10-----10--------------------------|
G|-------------------------------------------|
C|-------------------------------------------|



D|-------------------------------------------------------------------(2x)|
A|-----------------------------------------------------------------------|
F|-----------------------------------------------------------------------|
C|-8-8-88---------8-8-888---------8-8-888---8-7h8------------------------|
G|-8-8-88---8-7h8-8-8-888---8-7h8-8-8-888---------12-10-8-10-12-10-8-7---|
C|-8-8-88-0-------8-8-888-0-------8-8-888-0------------------------------|
          *               *               *

D|------------------------------------------------------------------------|
A|------------------------------------------------------------------------|
F|------------------------------------------------------------------------|
C|-------10-8-7--7----------------------10---10-----------------10-8-7----|
G|-0-0-0-------10--8-0-0-000-0-0-0-0-7h8--7h8---0-0-000-0-0-0-0--------10-|
C|-0-0-0-------------0-0-000-0-0-0-0------------0-0-000-0-0-0-0-----------|
     *               * * *** *   *              * * *** *   *


D|-------------------------------|
A|-------------------------------|
F|-------------------------------|
C|---------------------10-----7--|
G|-0-0-000-0-0-0-0--7h8----7h8---|
C|-0-0-000-0-0-0-0-7------5------|
   * * *** *   * 

D|------------------------------------------------------------------------|
A|------------------------------------------------------------------------|
F|------------------------------------------------------------------------|
C|-------10-8-7--7----------------------10---10-----------------10-8-7----|
G|-0-0-0-------10--8-0-0-000-0-0-0-0-7h8--7h8---0-0-000-0-0-0-0--------10-|
C|-0-0-0-------------0-0-000-0-0-0-0------------0-0-000-0-0-0-0-----------|
     *               * * *** *   *              * * *** *   *


D|-------------------------------|
A|-------------------------------|
F|-------------------------------|
C|---------------------10-----7--|
G|-0-0-000-0-0-0-0--7h8----7h8---|
C|-0-0-000-0-0-0-0-7------5------|
   * * *** *   *       


D|-------------------|
A|-------------------|
F|-------------------|
C|-------------------|
G|-3333333333333333--|
C|-3333333333333333--|
   ****************  


D|--------------------------------------------------(2x)|
A|------------------------------------------------------|
F|------------------------------------------------------|
C|----------------------------------77777777-55555555---|
G|-000-000-00-000-000-00-0-000-0-00-xxxxxxxx-xxxxxxxx---|
C|-000-000-00-000-000-00-0-000-0-00-55555555-33333333---|
   *** *** ** *** *** ** * *** * **

D|------------------------------------------------(2x)|   
A|----------------------------------------------------|  
F|----------------------------------------------------|   
C|--------------------------------77777777-55555555---|   
G|-5~-3~-5~-6~-5~-3~-5~-----------xxxxxxxx-xxxxxxxx---| 
C|----------------------7~-8~-10~-55555555-33333333---|



LEGEND

 ~:  Strumming
 *:  Palm muting
 x:  Do not play string
(2x):Play 2 times or more weather there is a (4x) play 4 times etc.

If you need help i posted a cover on youtube all you have to tipe in is 
Blind Witness- Confessions cover and it will be the video with the orange 
wall and red guitar for questions you could send me email or message on my 
youtube account anve fun.         
Suggest correction
Give kudos to tab author, rate the tab!
1 2 3 4 5
comments
print report bad tab
1 comment total.
0 reply
Brendan.Pivin 134 wrote on January 23 2009, 08:39 pm

Very Sexy tab alex

guest
You may want to rate the tab now too:
select rating
Please do not post tabs as comments. Select "correction" instead!