Oops, an error
Loading. Please wait.

About A Burning Fire Tab

version 2
version 2

Whole song

2,432 views 1 this week
2 commentsread comments
1 2 3 4 5
x 3
add to favorites
launch autoscroll
font size
0
reset
how to read this tab
guitar tuner
Autoscroll
slow
fast
+/-
esc
set tempo
stop
Help us to improve Ultimate-Guitar.com Take our survey!
×
Difficulty
novice
--------------------------------------------------------------------------------Blindside-About a Burning Fire
-----------------------------------------------------------------------------
Hey this is my first tab
Tuning: Dropped D  (DADGBe) 
Intro/Chorus:
|------------------------|----------------------------|
|------------------------|----------------------------|
|------------------------|----------------------------|
|--1----4-3-1------------|-------1-111-4-3-1----------|
|--1----4-3-1------------|-------1-111-4-3-1----------|
|--1----4-3-1------------|-------1-111-4-3-1----------|
                                   |--|P.M.
Verse:
|---------------------------|--------------------|
|---------------------------|--------------------|
|---------------------------|--------------------|
|---7-5-8-5-7--5-7-5-8-5-7--|--1-4-7--8-9-11-4---|
|---7-5-8-5-7--5-7-5-8-5-7--|--1-4-7--8-9-11-4---|
|---7-5-8-5-7--5-7-5-8-5-7--|--1-4-7--8-9-11-4---|
Riff:
|----------------|-----------------------------------|
|----------------|-----------------------------------|
|----------------|-----------------------------------|
|--4-------------|--1-1/3-3/99999999-----------------|
|--2----------1--|--1-1/3-3/99999999-----------------|
|-------------1--|--1-1/3-3/99999999-----------------|
Fill-in #1:     Fill-in #2: Fill-in #3    
|--------------|-------------|-------------|
|--------------|-------------|-------------|
|--------------|-------------|-------------|
|-----~8866446-|~--(9)-------|--(9)--(11)--|
|--------------|-------------|-------------|
|--------------|-------------|-------------|
Outro:
|---------| This Outro Slows
|---------| up as you play.
|---------|
|--1---4--|
|--1---2--|
|--1------|
Suggest correction
Give kudos to tab author, rate the tab!
1 2 3 4 5
comments
print report bad tab
2 comments total.
0 reply
Newb_Kid 10 Sep 25, 2008 05:59 AM

Looks pretty good.

Haven't got around to play it.

0 reply
MetallicA_1551 50 Oct 11, 2009 11:04 AM

i don't understand.. wtf???

guest
You may want to rate the tab now too:
select rating
Wanna post a correction for this tab? Suggest correction