Oops, an error
Loading. Please wait.

Caught A Glimpse Tab

version 1
version 1

Intro

Whole song

Interactive

979 views 1 this week
2 commentsread comments
1 2 3 4 5
please rate
add to favorites
launch autoscroll
font size
0
reset
how to read this tab
guitar tuner
Autoscroll
slow
fast
+/-
esc
set tempo
stop
Help us to improve Ultimate-Guitar.com Take our survey!
×
Tabbed by Uriel Garcia if u want more tabs e-mail me at zidjiang@hotmail.com

Intro only

E--------------------------------
B--------------------------------
G--------------------------------
D--------6-7-4-6-6-6-6-----------
A--7-6-4--------4-4-4------------
E--------------------------------


E--------------------------------
B--------------------------------
G--------------------------------
D--------6--7-/11-11-------------
A--7-6-4--4----------------------
E--------------------------------

dedicated to my girlfriend Amber who i love so much!
comments
We did not receive enough feedback on this tab! Please rate:
print report bad tab
1 2 3 4 5
2 comments total.
0 reply
AlMoStSaNe 15 wrote on March 3 2004, 12:00 am

Its more like this dude:
Drop C: CGCFAD

d;----------------------------------
a:----------------------------------
f:-3--2--0---------2------3----0----
c:---------------------0-----0----0-
g:------------0---------------------
C:----------------------------------

d;------------------------------------
a:------------------------------------
f:-2---2---2---2-----3--2--0-----2----
c:---0---0---0---0------------------0-
g:-----------------------------0------
C:------------------------------------

d;------------------------------------
a:------------------------------------
f:-3---/7---7---7---7-----------------
c:---0---0---0---0----0---------------
g:------------------------------------
C:------------------------------------

Pretty sure its right.

0 reply
fritzz 17 wrote on September 10 2006, 04:04 pm

eh.. no the tab sounds better than this peace of **** that's posted in the comment from AlMoStSaNe ... like the tab says: it starts with an E and AlMoStSaNe makes this song start with a G# ...

i don't know which tuning blindside uses but at least the tab sounds right (i think that the heavy chords in the song need a lower tuning)

I want to post or [tab]
guest
You may want to rate the tab now too:
select rating
Please do not post tabs as comments. Select "correction" instead!