Oops, an error
Loading. Please wait.

Endings Tab

version 2
version 2

Whole song

Interactive

265 views 3 this week
no commentswrite comment
1 2 3 4 5
please rate
add to favorites
launch autoscroll
font size
0
reset
how to read this tab
guitar tuner
Tab Pro tools
  • play this tab
  • loop segment
  • change instrument
  • show fretboard
  • metronome
×
Best way to learn
"Endings"
Autoscroll
slow
fast
+/-
esc
set tempo
stop
Contributor
Difficulty
Tuning
novice
D A D G B E
Tabbed by: Brian Benzinger
Email: bb42392@aim.com
Tuning:Drop Db (Db,Ab,Db,Gb,Bb,Eb)

This is as close as I could do this. Somethings may need to be changed, but
it sounds pretty good to me. Comment and rate please :)


         (p.m.)
Verse 1  x x x x x x
-|--------------------------------------------------------------------|
-|--------------------------------------------------------------------|
-|--------------------------------------------------------------------|
-|-5\2--2-2-2-2-2-2--2-2-2-2-2---5\2--2-2-2-2-2-2---5\2--2-2-2-2-2-2--|
-|-3\2--2-2-2-2-2-2--2-2-2-2-2---3\2--2-2-2-2-2-2---3\2--2-2-2-2-2-2--|
-|-3\2--2-2-2-2-2-2--2-2-2-2-2---3\2--2-2-2-2-2-2---3\2--2-2-2-2-2-2--|

--------------------------------|
--------------------------------|
--------------------------------|
-2-2-2-2-2-2---5\2--2-2-2-2-2-2-|
-2-2-2-2-2-2---3\2--2-2-2-2-2-2-|
-2-2-2-2-2-2---3\2--2-2-2-2-2-2-|

Chorus Intro
     Guitar 1    or   Guitar 2
-|----------------|---------------|
-|----------------|---------------|
-|----------------|---------------|
-|-10-9-10-9-10-9-|---------------|
-|-10-9-10-9-10-9-|-3-2--3-2--3-2-|
-|-10-9-10-9-10-9-|---------------|

Chorus Intro Continued
-|-------------------------------------|
-|-------------------------------------|
-|-------------------------------------|
-|-10-10-10-10-10-10-10-10-10-10-10-10-|
-|-10-10-10-10-10-10-10-10-10-10-10-10-|
-|-10-10-10-10-10-10-10-10-10-10-10-10-|

Chorus (2x)
-|-------------------------------------------------|
-|-------------------------------------------------|
-|-------------------------------------------------|
-|-7---------5--8---------10---------7--5--3-------|
-|-7-(15x)---5--8-(15x)---10-(12x)---7--5--3-(15x)-|
-|-7---------5--8---------10---------7--5--3-------|

Verse 2 (Same as Verse 1)

Chorus 2x

Then...
  Guitar 1 (3x)            or     Guitar 2 (3x)
-|-------------------------|-------------------------|
-|-------------------------|-------------------------|
-|-------------------------|-------------------------|
-|-2-2-2-5-1-2-5~-5-5-5-2~-|-2-2-2-5-1-2-5~-5-5-5-2~-|
-|-------------------------|-2-2-2-5-1-2-5~-5-5-5-2~-|
-|-------------------------|-2-2-2-5-1-2-5~-5-5-5-2~-|

Then...
-|-----|
-|-----|
-|-----|
-|-10~-|
-|-10~-|
-|-10~-|

Chorus (2x)

Chorus Continued (slightly different)/ Ending
-|-----------------------------------------|
-|-----------------------------------------|
-|-----------------------------------------|
-|-7---------8---------10---------7--5--3~-|
-|-7-(15x)---8-(15x)---10-(12x)---7--5--3~-|
-|-7---------8---------10---------7--5--3~-|


 \  slide down
 ~  hold out note
 x  Mute note
comments
We did not receive enough feedback on this tab! Please rate:
print report bad tab
1 2 3 4 5
I want to post or [tab]
guest
You may want to rate the tab now too:
select rating
Please do not post tabs as comments. Select "correction" instead!