Oops, an error
Loading. Please wait.

Eye Of The Storm Bass Tab

version 1
version 1

Whole song

Interactive

375 views 1 this week
no commentswrite comment
1 2 3 4 5
please rate
add to favorites
launch autoscroll
font size
0
reset
guitar tuner
Autoscroll
slow
fast
+/-
esc
set tempo
stop
Help us to improve Ultimate-Guitar.com Take our survey!
×
Difficulty
novice
tuning: G,D,A,Eb

verse 1
 G|--------------------------------------------------------------|
 D|--------------------------------------------------------------|
 A|444444---------222222---------------444-222-------------------|
Eb|-------666-333--------444-1111-6666----------13--13-13/1--1-1-|

 G|-------------------------------------------|
 D|-------------------------------------------|
 A|444444---------222222--------------444-222-|
Eb|-------666-333--------444-1111-6666--------|

Slow part 1
G|------------|
D|------------|
A|-----1~-----|
Eb|-0~-----0~-|

Chorus
 G|--------------------------------------------|
 D|--------------------------------------------|
 A|222222-----------------222222---------------|
Eb|-------777777-0-0-0000--------777777-2--0-0-|

Slow Part 2
 G|-----------|
 D|-----------|
 A|2~---------|
Eb|----5~--0~-|

End
 G|------|
 D|------|
 A|------|
Eb|--5~--

pretty simple song
Suggest correction
Give kudos to tab author, rate the tab!
1 2 3 4 5
comments
print report bad tab
guest
You may want to rate the tab now too:
select rating
Wanna post a correction for this tab? Suggest correction