Oops, an error
Loading. Please wait.

Fell In Love With The Game Bass Tab

version 1
version 1

Whole song

Interactive

414 views 1 this week
1 commentread comment
1 2 3 4 5
2 more votes to show rating
add to favorites
launch autoscroll
font size
0
reset
guitar tuner
Autoscroll
slow
fast
+/-
esc
set tempo
stop
Help us to improve Ultimate-Guitar.com Take our survey!
×
Author
Difficulty
novice
-Intro-

G---------------------------------------------------------------|
D---------------------------------------------------------------|
A---------------------------------------------------------------|
E---------------------------------------------------------------|
B-1-1-1-0-0-0-4-4-4-5-5-5-5-5-5-5-1-1-1-0-0-0-4-4-4-5-5-5-5-5-5-|

-verse 1-

G-----------------------------------------|
D-----------------------------------------|
A-----------------------------------------|
E-----------------------------------------|
B-5-5-5-5-5-5-5-5-1-1-1-0-0-0-4-4-4-5-5-5-|

G-----------------------------------------|
D-----------------------------------------|
A-----------------------------------------|
E-----------------------------------------|
B-5-5-5-5-5-5-5-5-1-1-1-0-0-0-4-4-4-5-5-5-|

G-----------------------------------------|
D-----------------------------------------|
A-----------------------------------------|
E-----------------------------------------|
B-5-5-5-5-5-5-5-5-1-1-1-0-0-0-4-4-4-5-5-5-|

G---------------------------------|
D---------------------------------|
A---------------------------------|
E---------------------------------|
B-5-5-5-5-5-5-5-5-5-5-5-5-5-5-5-5-|

-chorus-

G---------------------------------------------------------------------------------|
D---------------------------------------------------------------------------------|
A-----------------------------------3-3-3-3-2-2-2-2-7-7-5-7-5-7-5-7-7-5-7-5-7-5-7-|
E-3-3-3-3-3-3-3-5-5-0-0-0-0-3-3-3-3-----------------------------------------------|
B---------------------------------------------------------------------------------|

verse 2 (same as verse 1)
chorus 2 (same as chorus 1)

-Bridge-

G--------------------------------------------------------------------|
D--------------------------------------------------------------------|
A--------------------------------------------------------------------|
E--------------------------------------------------------------------|
B-1-1-1-1-1-----5-5—-0-0-1-1-1-1-1----5-5—0-0-1-1-1-1-1-----5-5-—0-0-|

G---------------------------------|
D---------------------------------|
A---------------------------------|
E—0-7—7-0-7-0-7-0—7---7-0-7-0-7-0-|
B---------------------------------|

-verse 3 (same as verse 1 and 2)
-chorus 3 (same as chorus 1 and 2)

-outro-
G---------------------------------|
D---------------------------------|
A---------------------------------|
E---------------------------------|
B-1-1-1-0-0-0-4-4-4-5-5-5-5-5-5-5-|

G---------------------------------|
D---------------------------------|
A---------------------------------|
E---------------------------------|
B-1-1-1-0-0-0-4-4-4-5-5-5-5-5-5-5-|

G---------------------------------|
D---------------------------------|
A---------------------------------|
E---------------------------------|
B-1-1-1-0-0-0-4-4-4-5-5-5-5-5-5-5-|

G---------------------------|
D---------------------------|
A---------------------------|
E---------------------------|
B-1-1-1-0-0-0-4-4-4-5-5-5-5-|(hold out)
Suggest correction
Give kudos to tab author, rate the tab!
1 2 3 4 5
comments
print report bad tab
1 comment total.
0 reply
bttr.thn.u 72 Feb 04, 2006 04:33 PM

WOW!! THIS IS PERFECT!!!

guest
You may want to rate the tab now too:
select rating
Wanna post a correction for this tab? Suggest correction