Oops, an error
Loading. Please wait.

Pitiful Bass Tab

version 1
version 1

Whole song

2,230 views 3 this week
2 commentsread comments
1 2 3 4 5
please rate
add to favorites
launch autoscroll
font size
0
reset
guitar tuner
Autoscroll
slow
fast
+/-
esc
set tempo
stop
Help us to improve Ultimate-Guitar.com Take our survey!
×
Author
Difficulty
Tuning
novice
D A D G B E
This is my very first ever tab written. Im writing it from my best interpretation of the 
by ear.


Tuning is in drop D

Intro:
G-----------------------|
D-----------------------|
A-----------------------|
D-0-3-0-3b3--0-3-0-3b3--|

Verse
G-----------------------|
D-----------------------|
E---2-1-----------------|  > X10
D-0---------------------|

Chorus
G-----------------------|
D-----------------------|
A-----------------------|  X4
D-0-3-0-3b3-------------|

Verse
G-----------------------|
D-----------------------|
E---2-1-----------------|  > X10
D-0---------------------|

Chorus
G-----------------------|
D-----------------------|
A-----------------------|  X4
D-0-3-0-3b3-------------|

Bridge
G--------------------------------------------------|
D--------------------------------------------------|
A--------------------------------------------------|
D-0-5-0-5-0-5-0-5--0-0--3-3--5-5--7-7--------------|


Im pretty sure its right.

Please rate.
Suggest correction
Give kudos to tab author, rate the tab!
1 2 3 4 5
comments
print report bad tab
2 comments total.
0 reply
*Jordie1* 10 wrote on April 13 2007, 02:53 am

YEP DEF. RIGHT.... BUT NO DROP D! UTHAWIZE FAN-FREAKIN-TASTIC

0 reply
offtheheezy 10 wrote on May 11 2007, 05:36 am

i dont think the bridge is right. not sure.
but otherwise.
spot on

guest
You may want to rate the tab now too:
select rating
Please do not post tabs as comments. Select "correction" instead!