Oops, an error
Loading. Please wait.

Pitiful Bass

version 3
version 3

Whole song

1,621 views 3 this week
3 commentsread comments
1 2 3 4 5
x 4
add to favorites
launch autoscroll
font size
0
reset
guitar tuner
Autoscroll
slow
fast
+/-
esc
set tempo
stop
Difficulty
intermediate
Intro

G|------------------------------|
D|------------------------------|
A|------------------------------|
D|-2--20--5--50--2--20--50-20---|

Verse  x10

G|------------------------------|
D|------------------------------|
A|-----5-3--3-2--2--------------|
D|-2~---------------------------|


Chorus  x4

G|------------------------------|
D|------------------------------|
A|------------------------------|
D|-2--20--5--50--2--20--50-20---|


Verse  x10

G|------------------------------|
D|------------------------------|
A|-----5-3--3-2--2--------------|
D|-2~---------------------------|


Chorus  x4

G|------------------------------|
D|------------------------------|
A|------------------------------|
D|-2--20--5--50--2--20--50-20---|


Bridge


G|------------------------------------------------------------------------|
D|------------------------------------------------------------------------|
A|------------------------------------------------------------------------|
D|-22222222-44444444-55555555-44444444-22222222-44444444-5555555-4444444--|


G|------------------------------|
D|------------------------------|
A|-------------00~---33~-2~-----|
D|-22~---55~--------------------|

    x2
G|------------------------------------------------------------------------|
D|------------------------------------------------------------------------|
A|--------------------00000000--33332222----------------------------------|
D|-22222222--55555555-----------------------------------------------------|


Chorus  x7

G|------------------------------|
D|------------------------------|
A|------------------------------|
D|-2--20--5--50--2--20--50-20---|

end with

Chorus  x4

G|-----
D|-----
A|-----
D|-0~--
Suggest correction
comments
print report bad tab
3 comments total.
-1 reply
punkbassist19 20 Jul 10, 2006 05:23 PM

Great tab man, keep it up.

+1 reply
ksmash5 50 Oct 16, 2009 05:39 PM

I think it's off by a half step from what they actually play. Am I right?

0 reply
mckayniac 31 Jan 07, 2017 08:49 PM

1/2 step too high

guest
You may want to rate the tab now too:
select rating
Wanna post a correction for this tab? Suggest correction