Oops, an error
Loading. Please wait.

Pitiful Tab

version 5
version 5
4,877 views 1 this week
no commentswrite comment
1 2 3 4 5
excellent!
x 5
add to favorites
launch autoscroll
font size
0
reset
how to read this tab
guitar tuner
Tab Pro tools
  • play this tab
  • loop segment
  • change instrument
  • show fretboard
  • metronome
×
Best way to learn
"Pitiful"
Autoscroll
slow
fast
+/-
esc
set tempo
stop
Song: Pitiful
Artist: Blindside

Tuning: DbAbDbGbBbEb (or C#G#C#F#A#D# same thing)

Key:
x =muted string
\ =slide down
/ =slide up
h =hammer on
p =pull off
~ =let ring

Intro
e|--------------------------------------------------------------|
B|--------------------------------------------------------------|
G|--------9\7-12-12\7-9-9\7-12------9\7-12-12\7-9-9\7-12--------|
D|--------x\x--x--x\x-x-x\x--x------x\x--x--x\x-x-x\x--x-----2--|
A|--------7\5-10-10\5-7-7\5-10------7\5-10-10\5-7-7\5-10-----2--|
D|-2-5-22---------------------2-5-22--------------------2-5-22--|
  

Bass Fill
e|----------------------------------------|
B|----------------------------------------|
G|----------------------------------------|
D|----------------------------------------|
A|--5-3--3-2--------5-3--3-2--------------|
D|------------5--2------------5--(2)------|


 Verse (whole thing is slightly palm muted)
e|--------------------------------------------------------------------------|
B|-----------88877777----------88877777---------88877777----------88877777--|
G|-5/7-999999--------5/7-999999--------5/7-99999--------5/7-999999----------|
D|--------------------------------------------------------------------------|
A|--------------------------------------------------------------------------|
D|--------------------------------------------------------------------------|

e|------------------------------------------------------------------------|
B|-----------88877777----------88877777---------88877777----------88877---|
G|-5/7-999999--------5/7-999999--------5/7-99999--------5/7-999999--------|
D|------------------------------------------------------------------------|
A|------------------------------------------------------------------------|
D|------------------------------------------------------------------------|


Chorus
e|--------------------------------------------------------|
B|--------------------------------------------------------|
G|--------9\7-12-12\7-9-9\7-12------9\7-12-12\7-9-9\7-12--|
D|--------x\x--x--x\x-x-x\x--x------x\x--x--x\x-x-x\x--x--|
A|--------7\5-10-10\5-7-7\5-10------7\5-10-10\5-7-7\5-10--|
D|-2-5-22---------------------2-5-22----------------------|

e|--------------------------------------------------------------|
B|--------------------------------------------------------------|
G|--------9\7-12-12\7-9-9\7-12------9\7-12-12\7-9-9\7-12--------|
D|--------x\x--x--x\x-x-x\x--x------x\x--x--x\x-x-x\x--x-----2--|
A|--------7\5-10-10\5-7-7\5-10------7\5-10-10\5-7-7\5-10-----2--|
D|-2-5-22---------------------2-5-22--------------------2-5-22--|


Bass Fill
e|----------------------------------------|
B|----------------------------------------|
G|----------------------------------------|
D|----------------------------------------|
A|--5-3--3-2--------5-3--3-2--------------|
D|------------5--2------------5--(2)------|

 Verse (whole thing is slightly palm muted)
e|--------------------------------------------------------------------------|
B|-----------88877777----------88877777---------88877777----------88877777--|
G|-5/7-999999--------5/7-999999--------5/7-99999--------5/7-999999----------|
D|--------------------------------------------------------------------------|
A|--------------------------------------------------------------------------|
D|--------------------------------------------------------------------------|

e|------------------------------------------------------------------------|
B|-----------88877777----------88877777---------88877777----------88877---|
G|-5/7-999999--------5/7-999999--------5/7-99999--------5/7-999999--------|
D|------------------------------------------------------------------------|
A|------------------------------------------------------------------------|
D|------------------------------------------------------------------------|


  Bridge
e|-------------------------------------------------------------------|
B|------------------------------------------------------------------|
G|------------------------------------------------------------------|
D|-2222222244444444555555554444444422222222444444445555555544444444-|
A|-2222222244444444555555554444444422222222444444445555555544444444-|
D|-2222222244444444555555554444444422222222444444445555555544444444-|


Solo
e|-----------------|
B|-8-8p7-7/12-12\8-|
G|-----------------|
D|-----------------| x4
A|-----------------|
D|-----------------|

e|-----------14----|
B|-8p7-8p7/12--12\-|
G|-----------------|
D|-----------------| x8
A|-----------------|
D|-----------------|


End Chorus
e|--------------------------------------------------------|
B|--------------------------------------------------------|
G|--------9\7-12-12\7-9-9\7-12------9\7-12-12\7-9-9\7-12--|
D|--------x\x--x--x\x-x-x\x--x------x\x--x--x\x-x-x\x--x--|
A|--------7\5-10-10\5-7-7\5-10------7\5-10-10\5-7-7\5-10--|
D|-2-5-22---------------------2-5-22----------------------|

e|--------------------------------------------------------|
B|--------------------------------------------------------|
G|--------9\7-12-12\7-9-9\7-12------9\7-12-12\7-9-9\7-12--|
D|--------x\x--x--x\x-x-x\x--x------x\x--x--x\x-x-x\x--x--|
A|--------7\5-10-10\5-7-7\5-10------7\5-10-10\5-7-7\5-10--|
D|-2-5-22---------------------2-5-22----------------------|

e|--------------------------------------------------------|
B|--------------------------------------------------------|
G|--------9\7-12-12\7-9-9\7-12------9\7-12-12\7-9-9\7-12--|
D|--------x\x--x--x\x-x-x\x--x------x\x--x--x\x-x-x\x--x--|
A|--------7\5-10-10\5-7-7\5-10------7\5-10-10\5-7-7\5-10--|
D|-2-5-22---------------------2-5-22----------------------|

e|------------------------------|
B|------------------------------|
G|-9\7-12-12\7-9-9\7-12---------|
D|-x\x--x--x\x-x-x\x--x-----2~--|
A|-7\5-10-10\5-7-7\5-10-----2~--|
D|---------------------2-5-22~--|


  Outro
e|--------------------------0~--------|
B|-12~~/13~/12~/10~0---0----0~--------|
G|-----------------x---x----x~--------|
D|-----------------9~~/5~/2~2~--------|
A|------------------------------------|
D|------------------------------------|
comments
print report bad tab
I want to post or [tab]
guest
You may want to rate the tab now too:
select rating
Please do not post tabs as comments. Select "correction" instead!