Oops, an error
Loading. Please wait.

Pitiful Tab

version 6
version 6
493 views 1 this week
no commentswrite comment
1 2 3 4 5
please rate
add to favorites
launch autoscroll
font size
0
reset
how to read this tab
guitar tuner
Tab Pro tools
  • play this tab
  • loop segment
  • change instrument
  • show fretboard
  • metronome
×
Best way to learn
"Pitiful"
Autoscroll
slow
fast
+/-
esc
set tempo
stop
Contributor
Difficulty
intermediate
Intro:
-|-------------------------|
-|-------------------------|
-|------------55--------55-|
-|-2-5-22-7-5-33-5----5-33-|
-|-0-3-00-5-3----3-55-3----|
-|-------------------------| (x2)

Verse 1:
-|------------------|
-|---------66655555-|
-|-57777777---------|
-|------------------|
-|------------------|
-|------------------| (x8)
"As i recall..."

Chorus:
-|-------------------------|
-|-------------------------|
-|------------55--------55-|
-|-2-5-22-7-5-33-5----5-33-|
-|-0-3-00-5-3----3-55-3----|
-|-------------------------| (x4)
"And I remember every word you said..."

Verse 2:
-|------------------|
-|---------66655555-|
-|-57777777---------|
-|------------------|
-|------------------|
-|------------------| (x8)
"But I know, as I hammered those nails into your beautiful hands..."

Chorus:
-|-------------------------|
-|-------------------------|
-|------------55--------55-|
-|-2-5-22-7-5-33-5----5-33-|
-|-0-3-00-5-3----3-55-3----|
-|-------------------------| (x4)
"And I remember every word you said..."

Bridge:
-|-----------------|
-|-----------------|
-|-----------------|
-|-4444444455555555
-|-2222222233333333
-|----------------- (x4)
"Pitiful, you're pitiful, pitiful, so pitiful..."

-|-------------------|
-|-------------13-13-|
-|-13-13-13-12-------|
-|-------------------|
-|-------------------|
-|-------------------| (x4)

-|----------------15-------|
-|-------------13----13----|
-|-13-12-13-12----------12-|
-|-------------------------|
-|-------------------------|
-|-------------------------| (x8)
"And I remember every word you said, this time I won't look away..."

Chorus:
"And I remember every word you said..."

-|-------------------------|
-|-------------------------|
-|------------55--------55-|
-|-2-5-22-7-5-33-5----5-33-|
-|-0-3-00-5-3----3-55-3----|
-|-------------------------| (x7)
"Come back in time, come back..."

-|-7-8-5-------------------|
-|--------0-------0--------|
-|----------0---0---0------|
-|------------4--------2---|
-|-------------------------|
-|-------------------------|
comments
We did not receive enough feedback on this tab! Please rate:
print report bad tab
1 2 3 4 5
I want to post or [tab]
guest
You may want to rate the tab now too:
select rating
Please do not post tabs as comments. Select "correction" instead!