Oops, an error
Loading. Please wait.

Superman Bass Tab

version 1
version 1

Whole song

Interactive

454 views 1 this week
no commentswrite comment
1 2 3 4 5
please rate
add to favorites
launch autoscroll
font size
0
reset
guitar tuner
Autoscroll
slow
fast
+/-
esc
set tempo
stop
Help us to improve Ultimate-Guitar.com Take our survey!
×
Author
Tabbed By 3D music Enjoy and please rate




G|---------------------------------------------------------------|
D|------------------------5h6p5------7------------------------5--|
A|---------------5--7--------------7--------------------5--7-----|
E|--0-0--0----------------------------------0-0--0---------------|

G|---------------------------------------------------------------|
D|---------------------------------------------------------------|
A|---------------------------------------------------------------|
E|--0---0-0---3---5--6---0---0-0--3---2--------------------------|

G|---------------------------------------------------------------|
D|---------------------------------------------------------------|
A|---------------------------------------------------------------|
E|--0---0-0---3---5--6--------8---6--5---------------------------|

G|---------------------------------------------------------------|
D|---------------------------------------------------------------|
A|---------------------------------------------------------------|
E|--0-0----0---0-0-----------------------------------------------|

G|---------------------------------------------------------------|
D|---------------------------------------------------------------|
A|---------------------------------------------------------------|
E|--0---0---1----------------------------------------------------|

G|---------------------------------------------------------------|
D|---------------------------------------------------------------|
A|--0--0------0--0-----------------------------------------------|
E|---------0-----------0-----------------------------------------|
Suggest correction
Give kudos to tab author, rate the tab!
1 2 3 4 5
comments
print report bad tab
guest
You may want to rate the tab now too:
select rating
Please do not post tabs as comments. Select "correction" instead!