Oops, an error
Loading. Please wait.

This Is A Heart Attack Tab

version 2
version 2

Whole song

395 views 1 this week
1 commentread comment
1 2 3 4 5
2 more votes to show rating
add to favorites
launch autoscroll
font size
0
reset
how to read this tab
guitar tuner
Autoscroll
slow
fast
+/-
esc
set tempo
stop
Help us to improve Ultimate-Guitar.com Take our survey!
×
Author
Tuning
D A D G B E
Album: The Great Depression
Tabbed By: Brian Benzinger
Tuning: Drop D (D,A,D,G,B,E)

This is my second tab. Blindside's a GREAT band, so
if you haven't heard many of their songs u need to.
This song's off their latest album, "The Great Depression."
I feel this tab is about 97% correct.

\=slide

//Edit\\ I originally tabbed the opening chords out wrong when I transferred them 
Here's how they should be.

Intro/Verse 1 (16x)
-|----------------|
-|----------------|
-|----------------|
-|-10-10-10-10----|
-|-12-12-12-12-\7-|
-|----------------|

Chorus (2x)-This isn't the exact amount of strums
-|--------------------------------|
-|--------------------------------|
-|--------------------------------|
-|-7-7-7-7-7-7-7-7--5-5-10-10-7-7-|
-|-7-7-7-7-7-7-7-7--5-5-10-10-7-7-|
-|-7-7-7-7-7-7-7-7--5-5-10-10-7-7-|

Verse 2 (16x)
-|----------------|
-|----------------|
-|----------------|
-|-10-10-10-10----|
-|-12-12-12-12-\7-|
-|----------------|

Chorus (2x)
-|--------------------------------|
-|--------------------------------|
-|--------------------------------|
-|-7-7-7-7-7-7-7-7--5-5-10-10-7-7-|
-|-7-7-7-7-7-7-7-7--5-5-10-10-7-7-|
-|-7-7-7-7-7-7-7-7--5-5-10-10-7-7-|

And Then... (7x)
PM - - - - - - - - - -
-|---------------------|
-|---------------------|
-|---------------------|
-|---------------------|
-|---------------------|
-|-4-4-4-4-4-5-5-5-5-5-|

Chorus (2x)
-|--------------------------------|
-|--------------------------------|
-|--------------------------------|
-|-7-7-7-7-7-7-7-7--5-5-10-10-7-7-|
-|-7-7-7-7-7-7-7-7--5-5-10-10-7-7-|
-|-7-7-7-7-7-7-7-7--5-5-10-10-7-7-|

Then Weird Effect Thing (4x)

This is just guitar (8x)
-|-----|
-|-----|
-|-----|
-|-5/7-|
-|-5/7-|
-|-5/7-|

Then Christian Comes in (8x)
-|------------------------|
-|------------------------|
-|------------------------|
-|-5/7--------------------|
-|-5/7--10-10-10-10-10-10-|
-|-5/7--12-12-12-12-12-12-|

Then This (4x)
-|-----|
-|-----|
-|-----|
-|-5/7-|
-|-5/7-|
-|-5/7-|

Outro (8x)
-|------------------------|
-|------------------------|
-|------------------------|
-|-5/7--------------------|
-|-5/7--10-10-10-10-10-10-|
-|-5/7--12-12-12-12-12-12-|

End
-|-----|
-|-----|
-|-----|
-|-5/7-|
-|-5/7-|
-|-5/7-|

And thats about it. Please comment and rate :)
Suggest correction
Give kudos to tab author, rate the tab!
1 2 3 4 5
comments
print report bad tab
1 comment total.
0 reply
RiseAgainst123 31 Feb 25, 2011 03:32 PM

great tab, just a couple of things that to me sound a bit better

-|-------------------------|
-|-------------------------|
-|-------------------------|
-|-------------------------|
-|-------------------------|
-|-2h4-4-4-4-4-2h5-5-5-5-5-|

also for the outro bit i think it should be

-|------------------------|
-|------------------------|
-|------------------------|
-|-5/7--10-10-10-10-10-10-|
-|-5/7--12-12-12-12-12-12-|
-|-5/7--------------------|

and for the synth sounding bit in the bridge you could just do the intro with wah or some similar effect

guest
You may want to rate the tab now too:
select rating
Wanna post a correction for this tab? Suggest correction