Oops, an error
Loading. Please wait.

This Time Tab

version 1
version 1

Whole song

Interactive

391 views 1 this week
no commentswrite comment
1 2 3 4 5
please rate
add to favorites
launch autoscroll
font size
0
reset
how to read this tab
guitar tuner
Tab Pro tools
  • play this tab
  • loop segment
  • change instrument
  • show fretboard
  • metronome
×
Best way to learn
"This Time"
Autoscroll
slow
fast
+/-
esc
set tempo
stop
Contributor
Title: This Time
Artist: Blindside
Album: The Great Depression
Tuning: Drop D
# of tabs for song: NONE! :)...well, one now.

Expect a guitar pro tab of this song soon.



Intro
e|---------------------------------------------------------------------|
B|---------------------------------------------------------------------|
G|---------------------------------------------------------------------|
D|-9-9-9-9-9-9-9-9-9-9-9-9-9-9-9-7-7-7-7-10-10-10-10-7-7-7-7-9-9-9-9-9-| (2X)
A|-5-5-5-------------------------7-7-7-7--7--7--7--7-7-7-7-7-7-7-7-7-7-|
D|-------9-9-9-9-7-7-7-7-5-5-5-5---------------------------------------|
 |Lightly palm muted...................................................|


Verse 1
e|-----8~~-----3~~-----5~~------|
B|----(10)~~--(5)~~---(7)~~-9~~-|
G|--------------------------x---| (2X)
D|-/7~-----\2~-----3~-------x---|
A|--------------------------9~~-|
D|------------------------------|


e|-----8~~-----3~~-----5~~------4~~-|
B|----(10)~~--(5)~~---(7)~~----(6)~-|
G|----------------------------------| (2X)
D|-/7~-----\2~-----3~-------2~------|
A|----------------------------------|
D|----------------------------------|


Chorus 1
e|---------------------------------------------------------------------|
B|---------------------------------------------------------------------|
G|---------------------------------------------------------------------|
D|-9-9-9-9-9-9-9-9-9-9-9-9-9-9-9-7-7-7-7-10-10-10-10-7-7-7-7-9-9-9-9-9-| (4X)
A|-5-5-5-------------------------7-7-7-7--7--7--7--7-7-7-7-7-7-7-7-7-7-|
D|-------9-9-9-9-7-7-7-7-5-5-5-5---------------------------------------|
 |Lightly palm muted...................................................|


Verse 2
e|-----8~~-----3~~-----5~~------|
B|----(10)~~--(5)~~---(7)~~-9~~-|
G|--------------------------x---| (2X)
D|-/7~-----\2~-----3~-------x---|
A|--------------------------9~~-|
D|------------------------------|


e|-----8~~-----3~~-----5~~------4~~-|
B|----(10)~~--(5)~~---(7)~~----(6)~-|
G|----------------------------------| (2X)
D|-/7~-----\2~-----3~-------2~------|
A|----------------------------------|
D|----------------------------------|


Chorus 2
e|---------------------------------------------------------------------|
B|---------------------------------------------------------------------|
G|---------------------------------------------------------------------|
D|-9-9-9-9-9-9-9-9-9-9-9-9-9-9-9-7-7-7-7-10-10-10-10-7-7-7-7-9-9-9-9-9-| (4X)
A|-5-5-5-------------------------7-7-7-7--7--7--7--7-7-7-7-7-7-7-7-7-7-|
D|-------9-9-9-9-7-7-7-7-5-5-5-5---------------------------------------|
 |Lightly palm muted...................................................|



Bridge (slight dist now)
e|----------------------------------------------|
B|----------------------------------------------|
G|----------------------------------------------|
D|----------------------------------------------|
A|----------------------------------------------| (2X)
D|-5----6----7----10----15----14----9-----------|


Chorus 3
e|---------------------------------------------------------------------|
B|---------------------------------------------------------------------|
G|---------------------------------------------------------------------|
D|-9-9-9-9-9-9-9-9-9-9-9-9-9-9-9-7-7-7-7-10-10-10-10-7-7-7-7-9-9-9-9-9-| (4X)
A|-5-5-5-------------------------7-7-7-7--7--7--7--7-7-7-7-7-7-7-7-7-7-|
D|-------9-9-9-9-7-7-7-7-5-5-5-5---------------------------------------|
 |Lightly palm muted...................................................|

Outro
e|---------------------------------------------------------------------|
B|---------------------------------------------------------------------|
G|---------------------------------------------------------------------|
D|-9-9-9-9-9-9-9-9-9-9-9-9-9-9-9-7-7-7-7-10-10-10-10-7-7-7-7-9-9-9-9-9-| (5X)
A|---------------------------------------------------------------------|
D|---------------------------------------------------------------------|

The outro fades out...you can hear it about 5 times.
comments
We did not receive enough feedback on this tab! Please rate:
print report bad tab
1 2 3 4 5
I want to post or [tab]
guest
You may want to rate the tab now too:
select rating
Please do not post tabs as comments. Select "correction" instead!