Oops, an error
Loading. Please wait.

Where The Sun Never Dies Tab

719 views 1 this week
1 commentread comment
1 2 3 4 5
please rate
add to favorites
launch autoscroll
font size
0
reset
how to read this tab
guitar tuner
Autoscroll
slow
fast
+/-
esc
set tempo
stop
Help us to improve Ultimate-Guitar.com Take our survey!
×
Author
Difficulty
Tuning
novice
D A D G B E
VERSE

E|----------------------------------------------|
B|----------------------------------------------|
G|----6---6---6------6--66---66-6--6--66-66-----|
D|----6---6---6------6--66---66-6--6--66-66-----|
A|----4---4---4------4--44---44-4--4--44-44-----|
D|----------------------------------------------|

E|----------------------------------------------|
B|----------------------------------------------|
G|----6---6---6------6--66---66-6--6--66-66-----|
D|----6---6---6------6--66---66-6--6--66-66-----|
A|----4---4---4------4--44---44-4--4--44-44-----|
D|----------------------------------------------|

E|----------------------------------------------|
B|----------------------------------------------|
G|----------------------------------------------|
D|----4---4---4------4--44---44-4--4--44-44-----|
A|----4---4---4------4--44---44-4--4--44-44-----|
D|----4---4---4------4--44---44-4--4--44-44-----|

E|----------------------------------------------|
B|----------------------------------------------|
G|----------------------------------------------|
D|----7---7---7------7--77---77-7--7--77-77-----|
A|----7---7---7------7--77---77-7--7--77-77-----|
D|----7---7---7------7--77---77-7--7--77-77-----|

E|----------------------------------------------|
B|----------------------------------------------|
G|----6---6---6------6--66---66-6--6--66-66-----|
D|----6---6---6------6--66---66-6--6--66-66-----|
A|----4---4---4------4--44---44-4--4--44-44-----|
D|----------------------------------------------|

E|----------------------------------------------|
B|----------------------------------------------|
G|----6---6---6------6--66---66-6--6--66--------|
D|----6---6---6------6--66---66-6--6--66--------|
A|----4---4---4------4--44---44-4--4--44--------|
D|----------------------------------------------|

E|----------------------------------------------|
B|----------------------------------------------|
G|----------------------------------------------|
D|----4---4---4------4--44---44-4--4--44-44-----|
A|----4---4---4------4--44---44-4--4--44-44-----|
D|----4---4---4------4--44---44-4--4--44-44-----|

E|----------------------------------------------|
B|----------------------------------------------|
G|----------------------------------------------|
D|----7---7---7------7--77---77-7--7--77-77-----|
A|----7---7---7------7--77---77-7--7--77-77-----|
D|----7---7---7------7--77---77-7--7--77-77-----|


CHORUS

E|------------------------------------------------------------------|
B|------------------------------------------------------------------|
G|--------------------------------------------------6-6-6-6-6-6-6-6-|
D|--6-6-6-6-6-6-6-6-2-2-2-2-2-2-2-2-6-6-6-6-6-6-6-6-6-6-6-6-6-6-6-6-|
A|--6-6-6-6-6-6-6-6-2-2-2-2-2-2-2-2-6-6-6-6-6-6-6-6-4-4-4-4-4-4-4-4-|
D|--6-6-6-6-6-6-6-6-2-2-2-2-2-2-2-2-6-6-6-6-6-6-6-6-----------------|

E|------------------------------------------------------------------|
B|------------------------------------------------------------------|
G|--------------------------------------------------6-6-6-6-6-6-6-6-|
D|--6-6-6-6-6-6-6-6-2-2-2-2-2-2-2-2-6-6-6-6-6-6-6-6-6-6-6-6-6-6-6-6-|
A|--6-6-6-6-6-6-6-6-2-2-2-2-2-2-2-2-6-6-6-6-6-6-6-6-4-4-4-4-4-4-4-4-|
D|--6-6-6-6-6-6-6-6-2-2-2-2-2-2-2-2-6-6-6-6-6-6-6-6-----------------|

E|-----------------------------------------------------------------|
B|-----------------------------------------------------------------|
G|-----------------------------------------------------------------|
D|--7-7-6--4-6--6-3-3-3-3-3-3-3-3--7-7-6--4-6--6-3-3-3-3-3-3-3-3-3-|
A|--7-7-6--4-6--6-3-3-3-3-3-3-3-3--7-7-6--4-6--6-3-3-3-3-3-3-3-3-3-|
D|--7-7-6--4-6--6-3-3-3-3-3-3-3-3--7-7-6--4-6--6-3-3-3-3-3-3-3-3-3-|

E|---------------------|
B|---------------------|
G|---------------------|
D|--2-2-2-2-2-2-2-2----|
A|--2-2-2-2-2-2-2-2----|
D|--2-2-2-2-2-2-2-2----|

BRIDGE

E|-----------------------------------------------------------------|
B|-----------------------------------------------------------------|
G|--------2--------------2---------2---------------2---2-----------|
D|-----------------------------------------------------------------|
A|--0-0-0----0-0-0-0-0-0-----0-0-0-----0-0-0-0-0-0---0-------------|
D|--2-2-2----2-2-2-2-2-2-----2-2-2-----2-2-2-2-2-2---2-------------|

E|--------------------------------|
B|--------------------------------|
G|--------2--------------2-2-2----|
D|--------------------------------|
A|--0-0-0----0-0-0-0-0-0----------|
D|--2-2-2----2-2-2-2-2-2----------|


OUTRO

E|-----------------------------------------------------------------|
B|-----------------------------------------------------------------|
G|-----------------------------------------------------------------|
D|--7-7-6--4-6--6-3-3-3-3-3-3-3-3--7-7-6--4-6--6-3-3-3-3-3-3-3-3-3-|
A|--7-7-6--4-6--6-3-3-3-3-3-3-3-3--7-7-6--4-6--6-3-3-3-3-3-3-3-3-3-|
D|--7-7-6--4-6--6-3-3-3-3-3-3-3-3--7-7-6--4-6--6-3-3-3-3-3-3-3-3-3-|

E|-----------------------|
B|-----------------------|
G|-----------------------|
D|--2-2-2-2-2-2-2-2------|
A|--2-2-2-2-2-2-2-2------|
D|--2-2-2-2-2-2-2-2------|

E|-------------------------------------------------------------------------|
B|------------7---2-------------7---2--------------7---2--------------7---2|
G|-----4------------------4------------------4------------------4----------|
D|-2------------------2-----------------2------------------2---------------|
A|-------------------------------------------------------------------------|
D|-------------------------------------------------------------------------|

E|-------------------------------------------------------------------------|
B|------------7---2-------------7---2--------------------------------------|
G|-----4------------------4------------------------------------------------|
D|-2------------------2-----------------2----------------------------------|
A|-------------------------------------------------------------------------|
D|-------------------------------------------------------------------------|

Suggest correction
Give kudos to tab author, rate the tab!
1 2 3 4 5
comments
print report bad tab
1 comment total.
0 reply
365_days_gone 4,287 wrote on February 23 2008, 01:03 am

4 stars. I just think that in the bridge:

Where The Sun Never Dies Tab by Blindside, www.Ultimate-Guitar.Com

VERSE

E|----------------------------------------------|
B|----------------------------------------------|
G|----6---6---6------6--66---66-6--6--66-66-----|
D|----6---6---6------6--66---66-6--6--66-66-----|
A|----4---4---4------4--44---44-4--4--44-44-----|
D|----------------------------------------------|

E|----------------------------------------------|
B|----------------------------------------------|
G|----6---6---6------6--66---66-6--6--66-66-----|
D|----6---6---6------6--66---66-6--6--66-66-----|
A|----4---4---4------4--44---44-4--4--44-44-----|
D|----------------------------------------------|

E|----------------------------------------------|
B|----------------------------------------------|
G|----------------------------------------------|
D|----4---4---4------4--44---44-4--4--44-44-----|
A|----4---4---4------4--44---44-4--4--44-44-----|
D|----4---4---4------4--44---44-4--4--44-44-----|

E|----------------------------------------------|
B|----------------------------------------------|
G|----------------------------------------------|
D|----7---7---7------7--77---77-7--7--77-77-----|
A|----7---7---7------7--77---77-7--7--77-77-----|
D|----7---7---7------7--77---77-7--7--77-77-----|

E|----------------------------------------------|
B|----------------------------------------------|
G|----6---6---6------6--66---66-6--6--66-66-----|
D|----6---6---6------6--66---66-6--6--66-66-----|
A|----4---4---4------4--44---44-4--4--44-44-----|
D|----------------------------------------------|

E|----------------------------------------------|
B|----------------------------------------------|
G|----6---6---6------6--66---66-6--6--66--------|
D|----6---6---6------6--66---66-6--6--66--------|
A|----4---4---4------4--44---44-4--4--44--------|
D|----------------------------------------------|

E|----------------------------------------------|
B|----------------------------------------------|
G|----------------------------------------------|
D|----4---4---4------4--44---44-4--4--44-44-----|
A|----4---4---4------4--44---44-4--4--44-44-----|
D|----4---4---4------4--44---44-4--4--44-44-----|

E|----------------------------------------------|
B|----------------------------------------------|
G|----------------------------------------------|
D|----7---7---7------7--77---77-7--7--77-77-----|
A|----7---7---7------7--77---77-7--7--77-77-----|
D|----7---7---7------7--77---77-7--7--77-77-----|


CHORUS

E|------------------------------------------------------------------|
B|------------------------------------------------------------------|
G|--------------------------------------------------6-6-6-6-6-6-6-6-|
D|--6-6-6-6-6-6-6-6-2-2-2-2-2-2-2-2-6-6-6-6-6-6-6-6-6-6-6-6-6-6-6-6-|
A|--6-6-6-6-6-6-6-6-2-2-2-2-2-2-2-2-6-6-6-6-6-6-6-6-4-4-4-4-4-4-4-4-|
D|--6-6-6-6-6-6-6-6-2-2-2-2-2-2-2-2-6-6-6-6-6-6-6-6-----------------|

E|------------------------------------------------------------------|
B|------------------------------------------------------------------|
G|--------------------------------------------------6-6-6-6-6-6-6-6-|
D|--6-6-6-6-6-6-6-6-2-2-2-2-2-2-2-2-6-6-6-6-6-6-6-6-6-6-6-6-6-6-6-6-|
A|--6-6-6-6-6-6-6-6-2-2-2-2-2-2-2-2-6-6-6-6-6-6-6-6-4-4-4-4-4-4-4-4-|
D|--6-6-6-6-6-6-6-6-2-2-2-2-2-2-2-2-6-6-6-6-6-6-6-6-----------------|

E|-----------------------------------------------------------------|
B|-----------------------------------------------------------------|
G|-----------------------------------------------------------------|
D|--7-7-6--4-6--6-3-3-3-3-3-3-3-3--7-7-6--4-6--6-3-3-3-3-3-3-3-3-3-|
A|--7-7-6--4-6--6-3-3-3-3-3-3-3-3--7-7-6--4-6--6-3-3-3-3-3-3-3-3-3-|
D|--7-7-6--4-6--6-3-3-3-3-3-3-3-3--7-7-6--4-6--6-3-3-3-3-3-3-3-3-3-|

E|---------------------|
B|---------------------|
G|---------------------|
D|--2-2-2-2-2-2-2-2----|
A|--2-2-2-2-2-2-2-2----|
D|--2-2-2-2-2-2-2-2----|

BRIDGE

E|-----------------------------------------------------------------|
B|-----------------------------------------------------------------|
G|--------2--------------2---------2---------------2---2-----------|
D|-----------------------------------------------------------------|
A|--0-0-0----0-0-0-0-0-0-----0-0-0-----0-0-0-0-0-0---0-------------|
D|--2-2-2----2-2-2-2-2-2-----2-2-2-----2-2-2-2-2-2---2-------------|

The G string 2's should be up an octave on the 14th fet.

guest
You may want to rate the tab now too:
select rating
Wanna post a correction for this tab? Suggest correction