Oops, an error
Loading. Please wait.

Phlex bass

version 1
version 1

Whole song

Interactive

957 views 1 this week
2 commentsread comments
1 2 3 4 5
x 3
add to favorites
×
Save as Personal and add changes to this tab that will be seen only by you. Learn more ›
×
You can save this tab as Personal to edit and correct it or add notes. All changes will be seen only by you. Learn more »
launch autoscroll
font size
0
reset
guitar tuner
edit
Autoscroll
slow
fast
+/-
esc
set tempo
stop
Author
Bit tricky to get all the timings etc correct on these types of tab, but I've had 
a crack at it. Just have a listen to the song to get it all in the correct place.

The Chord progression is simply, A G F G all the way through the song so all three 
parts will sound ok over any part of the song.

Part 1

G|-----2---4-2-0--|----------------|----------------|----------------|
D|---2------------|-----7---5----5-|-----5---3------|------7---5---5-|
A|-0--------------|---5---------5-5|---3---------5--|---5---------5-5|
E|----------------|-3--------------|-1--------------|-3--------------|
   1 & 2 & 3 & 4 &  1 & 2 & 3 & 4 &  1 & 2 & 3 & 4 &  1 & 2 & 3 & 4 & 

Part 2

G|----------------|----------------|----------------|----------------|
D|----------------|----------------|----------------|----------------|
A|-0-0000----0000-|----------------|----------------|----------------|
E|----------------|-3-3333----3333-|-1-1111----1111-|-3-3333----3333-|
   1 & 2 & 3 & 4 &  1 & 2 & 3 & 4 &  1 & 2 & 3 & 4 &  1 & 2 & 3 & 4 &

Part 3

G|----------------|----------------|----------------|----------------|
D|----------------|----------------|----------------|----------------|
A|-0--------------|----------------|----------------|----------------|
E|----------------|-3--------------|-1--------------|-3--------------|
   
Part 1 (x2)
Part 2 (x2)

Part 1 (x2)
Part 2 (x2)

Part 1 (x3)

Then theres a break in the bass untill he sings
"So make the most of every day ...."

Part 3 (x1, start as he sings the word "So")

Part 1 (repeat to the end of the song)

            
            
Suggest correction
Creating personal tab
Creating personal tab
You can edit any tab online and save it as your Personal.

You can edit, replace or remove any tab part or add personal notes – all changes will be seen only by you.

Personal tabs can be accessed anytime from any device, even offline.
Learn more »
Give kudos to tab author, rate the tab!
1 2 3 4 5
comments
print report bad tab
2 comments total.
0 reply
MachoCheese 30 Aug 01, 2014 06:50 PM

Lack of accuracy.

0 reply
MachoCheese 30 Oct 01, 2014 05:35 PM

didn't like this contribution

guest
You may want to rate the tab now too:
select rating
Wanna post a correction for this tab? Suggest correction