Oops, an error
Loading. Please wait.

Phlex bass

version 2
version 2

Whole song

Interactive

283 views 1 this week
no commentswrite comment
1 2 3 4 5
3 more votes to show rating
add to favorites
×
Save as Personal and add changes to this tab that will be seen only by you. Learn more ›
×
You can save this tab as Personal to edit and correct it or add notes. All changes will be seen only by you. Learn more »
launch autoscroll
font size
0
reset
guitar tuner
edit
Autoscroll
slow
fast
+/-
esc
set tempo
stop
Author
Hey guys this is my first tab but I learnt it from the man himself so I know it's not 
wrong :)

Standard tuning
\ slide down
h hammer on

There's two parts to this song the first part goes like this.

G|----------------|----------------|----------------|----------------|
D|-----7-7\10-9-7-|-----5\7-5----5-|-----3\5--3-----|-----5/7-5----5-|
A|---7------------|---5-------5h7--|---3--------3---|---5-------5h7--|
E|-5--------------|-3--------------|-1--------------|-3--------------|
   1 & 2 & 3 & 4 &  1 & 2 & 3 & 4 &  1 & 2 & 3 & 4 &  1 & 2 & 3 & 4 &

The other part goes like this.

G|----------------|----------------|----------------|----------------|
D|----------------|----------------|----------------|----------------|
A|----7777---7777-|----5555---5-5--|----3333--3333--|----5555---5-5--|
E|-5-5-----5------|-3-3-----3--3---|-1-1-----1------|-3-3-----3--3---|
   1 & 2 & 3 & 4 &  1 & 2 & 3 & 4 &  1 & 2 & 3 & 4 &  1 & 2 & 3 & 4 &


Just follow those tabs and listen to the song and find where it fits in. Not too hard 
you just have to listen. :)
Suggest correction
Creating personal tab
Creating personal tab
You can edit any tab online and save it as your Personal.

You can edit, replace or remove any tab part or add personal notes – all changes will be seen only by you.

Personal tabs can be accessed anytime from any device, even offline.
Learn more »
Give kudos to tab author, rate the tab!
1 2 3 4 5
comments
print report bad tab
guest
You may want to rate the tab now too:
select rating
Wanna post a correction for this tab? Suggest correction