Oops, an error
Loading. Please wait.

Yours Truly tab

version 2
version 2

Whole song

2,102 views 9 this week
1 commentread comment
1 2 3 4 5
x 4
add to favorites
×
Save as Personal and add changes to this tab that will be seen only by you. Learn more ›
×
You can save this tab as Personal to edit and correct it or add notes. All changes will be seen only by you. Learn more »
launch autoscroll
font size
0
reset
how to read this tab
guitar tuner
edit
Autoscroll
slow
fast
+/-
esc
set tempo
stop
YOURS TRULY
-----------
Artist - Blindspott
Album - End the Silence
Guitarists - Marcus Powell & Brandon Reihana
Tab By - Jeremy Buswell (jeremy_buswell@hotmail.com)

Tuning: 7 String Drop A (Low To High) A E A D G B E
____________________________________________________________________________

INTRO [CLEAN - Fade In]
E -0---------------|
B -4---------------|
G -6---------------|
D -----------------|
A -----------------|
E -----------------|
A -----------------|
   1 + 2 + 3 + 4 + |

GUITAR 1 [DISTORTED - Play Twice]
E -00000000---0000-|-00000000---0000-|-00000000---0000-|-00000000---0000-|
B -55555555---5555-|-55555555---5555-|-55555555---5555-|-55555555---5555-|
G -66666666---6666-|-66666666---6666-|-66666666---6666-|-66666666---6666-|
D -66666666---6666-|-66666666---6666-|-66666666---6666-|-66666666---6666-|
A -44444444---4444-|-44444444---4444-|-00000000---0000-|-00000000---0000-|
E -----------------|-----------------|-----------------|-----------------|
A -----------------|-----------------|-----------------|-----------------|
   1 + 2 + 3 + 4 + | 1 + 2 + 3 + 4 + | 1 + 2 + 3 + 4 + | 1 + 2 + 3 + 4 + |
GUITAR 2 [DISTORTED - Play Twice]
E -----------------|-----------------|-----------------|-----------------|
B -----------------|-----------------|-----------------|-----------------|
G -----------------|-----------------|-----------------|-----------------|
D -----------------|-----------------|-----------------|-----------------|
A -7---7-------7---|-7---7-------7---|-7---7-------7---|-7---7-------7---|
E -----------------|-----------------|-----------------|-----------------|
A --444-444---4-44-|--444-444---4-44-|--000-000---0-00-|--000-000---0-00-|
   1 + 2 + 3 + 4 + | 1 + 2 + 3 + 4 + | 1 + 2 + 3 + 4 + | 1 + 2 + 3 + 4 + |

FIRST VERSE
GUITAR 1 [CLEAN W/ SLIGHT DELAY]
E -----------------|-----------------|-----------------|-----------------|
B -----------------|-------------12--|-----------------|-------------17--|
G -------------13--|-----------------|-13----------11--|-13--------------|
D -----11----11----|-13-------/11----|-----------14----|-----------14----|
A -----------------|-----------------|-----------------|-----------------|
E -----------------|-----------------|-----------------|-----------------|
A -----------------|-----------------|-----------------|-----------------|
   1 + 2 + 3 + 4 + | 1 + 2 + 3 + 4 + | 1 + 2 + 3 + 4 + | 1 + 2 + 3 + 4 + |
GUITAR 2 [DISTORTED - Fade out after 2 bars]           [CLEAN]
E -0---------------|-----------------|-----------------|-----------------|
B -5---------------|-----------------|-----------------|-------0---------|
G -6---------------|-----------------|-----------------|-----------------|
D -6---------------|-----------------|-----------------|-----------------|
A -4---------------|-----------------|-----------------|-----------------|
E (4)--------------|-----------------|-----------------|-----------------|
A (4)--------------|-----------------|-----------------|-----------------|
   1 + 2 + 3 + 4 + | 1 + 2 + 3 + 4 + | 1 + 2 + 3 + 4 + | 1 + 2 + 3 + 4 + |

GUITAR 1 [CLEAN W/ SLIGHT DELAY]
E -----------------|-----------------|-----------------|-----------------|
B -14--------------|-------------12--|-----------------|-------------17--|
G -------------13--|-----------------|-13----------11--|-13--------------|
D -----------11----|-13--------11----|-----------14----|-----------14----|
A -----------------|-----------------|-----------------|-----------------|
E -----------------|-----------------|-----------------|-----------------|
A -----------------|-----------------|-----------------|-----------------|
   1 + 2 + 3 + 4 + | 1 + 2 + 3 + 4 + | 1 + 2 + 3 + 4 + | 1 + 2 + 3 + 4 + |
GUITAR 2 [CLEAN]
E -----------------|-----------------|-----------------|-----------------|
B -----------------|-----------------|-----------------|-----------------|
G -----------------|-------2---------|-----------------|-----------------|
D -----------------|-----------------|-----------------|-------2---------|
A -----------------|-----------------|-----------------|-----------------|
E -----------------|-----------------|-----------------|-----------------|
A -----------------|-----------------|-----------------|-----------------|
   1 + 2 + 3 + 4 + | 1 + 2 + 3 + 4 + | 1 + 2 + 3 + 4 + | 1 + 2 + 3 + 4 + |

GUITAR 1 [CLEAN W/ SLIGHT DELAY]
E -----------------|
B -16--------------|
G -----------------|
D -----------------|
A -----------------|
E -----------------|
A -----------------|
   1 + 2 + 3 + 4 + |

CHORUS
GUITAR 1 [DISTORTED - Play Twice]
E -4---4--4-44-7-7-|-9-9-9-9-9-9-9-9-9-9-9-9-9-9-9-9-|-0---0--0-00-0-0-|-2---2--2-22-2-2-|
B -5---5--5-55-7-7-|-101010101010109-9-9-9-9-9-9-9-9-|-0---0--0-00-0-0-|-2---2--2-22-2-2-|
G -6---6--6-66-9-9-|-11111111111111111111111111111111|-2---2--2-22-2-2-|-4---4--4-44-4-4-|
D -6---6--6-66-9-9-|-11111111111111111111111111111111|-2---2--2-22-2-2-|-4---4--4-44-4-4-|
A -4---4--4-44-7-7-|-9-9-9-9-9-9-9-9-9-9-9-9-9-9-9-9-|-0---0--0-00-0-0-|-2---2--2-22-2-2-|
E -----------------|---------------------------------|-----------------|-----------------|
A -----------------|---------------------------------|-----------------|-----------------|
   1 + 2 + 3 + 4 + | 1 e + a 2 e + a 3 e + a 4 e + a | 1 + 2 + 3 + 4 + | 1 + 2 + 3 + 4 + |
GUITAR 2 [DISTORTED - Play Twice]
E -----------------|-----------------|-----------------|-----------------|
B -----------------|-----------------|-----------------|-----------------|
G -----------------|-----------------|-----------------|-----------------|
D -----------------|-----------------|-----------------|-----------------|
A -4---4--4-44-7-7-|-9---9--9-99-9-9-|-0---0--0-00-0-0-|-2---2--2-22-2-2-|
E -4---4--4-44-7-7-|-9---9--9-99-9-9-|-0---0--0-00-0-0-|-2---2--2-22-2-2-|
A -4---4--4-44-7-7-|-9---9--9-99-9-9-|-0---0--0-00-0-0-|-2---2--2-22-2-2-|
   1 + 2 + 3 + 4 + | 1 + 2 + 3 + 4 + | 1 + 2 + 3 + 4 + | 1 + 2 + 3 + 4 + |

BREAK 1
GUITAR 1 [DISTORTED]
E -00000000---0000-|-00000000---0000-|-00000000---0000-|-00000000--------|
B -55555555---5555-|-55555555---5555-|-55555555---5555-|-55555555--------|
G -66666666---6666-|-66666666---6666-|-66666666---6666-|-66666666--------|
D -66666666---6666-|-66666666---6666-|-66666666---6666-|-66666666--------|
A -44444444---4444-|-44444444---4444-|-00000000---0000-|-00000000--------|
E -----------------|-----------------|-----------------|-----------------|
A -----------------|-----------------|-----------------|-----------------|
   1 + 2 + 3 + 4 + | 1 + 2 + 3 + 4 + | 1 + 2 + 3 + 4 + | 1 + 2 + 3 + 4 + |
GUITAR 2 [DISTORTED]
E -----------------|-----------------|-----------------|-----------------|
B -----------------|-----------------|-----------------|-----------------|
G -----------------|-----------------|-----------------|-----------------|
D -----------------|-----------------|-----------------|-----------------|
A -7---7-------7---|-7---7-------7---|-7---7-------7---|-7---7-----------|
E -----------------|-----------------|-----------------|-----------------|
A --444-444---4-44-|--444-444---4-44-|--000-000---0-00-|--000-000---0000-|
   1 + 2 + 3 + 4 + | 1 + 2 + 3 + 4 + | 1 + 2 + 3 + 4 + | 1 + 2 + 3 + 4 + |

SECOND VERSE
GUITAR 1 [CLEAN W/ SLIGHT DELAY]
E -----------------|-----------------|-----------------|-----------------|
B -----------------|-----------------|-----------------|-----------------|
G -8---------------|-----------------|-----------------|-----------------|
D -11--------------|-----------------|-11--------------|-----------------|
A -----------------|-----------------|-12--------------|-----------------|
E -----------------|-----------------|-----------------|-----------------|
A -----------------|-----------------|-----------------|-----------------|
   1 + 2 + 3 + 4 + | 1 + 2 + 3 + 4 + | 1 + 2 + 3 + 4 + | 1 + 2 + 3 + 4 + |
GUITAR 2 [CLEAN]
E -----------------|-----------------|-----------------|-----------------|
B -----------------|-----------------|-----------------|-----------------|
G -----------------|-----------------|-----------------|-----------------|
D -----------------|--------2--------|-----------------|--------2--------|
A -4---------------|-----------------|-----------------|-----------------|
E -----------------|-------------4---|-5---------------|-------------4---|
A -----------------|-----------------|-----------------|-----------------|
   1 + 2 + 3 + 4 + | 1 + 2 + 3 + 4 + | 1 + 2 + 3 + 4 + | 1 + 2 + 3 + 4 + |

GUITAR 1 [CLEAN W/ SLIGHT DELAY]
E -----------------|-----------------|-----------------|-----------------|
B -----------------|-----------------|-----------------|-----------------|
G -8---------------|-----------------|-----------------|-----------------|
D -11--------------|-----------------|-11--------------|-----------------|
A -----------------|-----------------|-12--------------|-----------------|
E -----------------|-----------------|-----------------|-----------------|
A -----------------|-----------------|-----------------|-----------------|
   1 + 2 + 3 + 4 + | 1 + 2 + 3 + 4 + | 1 + 2 + 3 + 4 + | 1 + 2 + 3 + 4 + |
GUITAR 2 [CLEAN]
E -----------------|-----------------|-----------------|-----------------|
B -----------------|-----------------|-----------------|-----------------|
G -----------------|--------2--------|-----------------|-----------------|
D -----------------|-------------2---|-----------------|-----------------|
A -4---------------|-----------------|-0---------------|-----------------|
E -----------------|-----------------|-----------------|-----------------|
A -----------------|-----------------|-----------------|-----------------|
   1 + 2 + 3 + 4 + | 1 + 2 + 3 + 4 + | 1 + 2 + 3 + 4 + | 1 + 2 + 3 + 4 + |

GUITAR 1 [CLEAN W/ SLIGHT DELAY]
E -----------------|
B -----------------|
G -8h9--(8h9---8h9)| Only first two notes are picked
D -----------------| The rest is delay
A -----------------|
E -----------------|
A -----------------|
   1 + 2 + 3 + 4 + |
GUITAR 2 [CLEAN]
E -0---------------|
B -4---------------|
G -6---------------|
D -----------------|
A -----------------|
E -----------------|
A -----------------|
   1 + 2 + 3 + 4 + |

Repeat CHORUS

BREAK 1
GUITAR 1 [DISTORTED]
                   |-----------------------------Repeat-1x-----------------------------|
E -----------------|---------------------------------|---------------------------------|
B -----------------|---------------------------------|---------------------------------|
G -6666666666669999|-14141414141414131313131313131313|-111111111111119-9-9-9-9-9-9-9-9-|
D -x-x-x-x-x-x-x-x-|-x-x-x-x-x-x-x-x-x-x-x-x-x-x-x-x-|-x-x-x-x-x-x-x-x-x-x-x-x-x-x-x-x-|
A -4444444444447777|-12121212121212111111111111111111|-9-9-9-9-9-9-9-7-7-7-7-7-7-7-7-7-|
E -----------------|---------------------------------|---------------------------------|
A -----------------|---------------------------------|---------------------------------|
   1 + 2 + 3 + 4 + | 1 e + a 2 e + a 3 e + a 4 e + a | 1 e + a 2 e + a 3 e + a 4 e + a |
GUITAR 2 [DISTORTED]
E -----------------|-----------------|-----------------|-----------------|
B -----------------|-----------------|-----------------|-----------------|
G -----------------|-----------------|-----------------|-----------------|
D -----------------|-----------------|-----------------|-----------------|
A -4---4--4-44-7-7-|-9---9--9-99-9-9-|-0---0--0-00-0-0-|-2---2--2-22-2-2-|
E -4---4--4-44-7-7-|-9---9--9-99-9-9-|-0---0--0-00-0-0-|-2---2--2-22-2-2-|
A -4---4--4-44-7-7-|-9---9--9-99-9-9-|-0---0--0-00-0-0-|-2---2--2-22-2-2-|
   1 + 2 + 3 + 4 + | 1 + 2 + 3 + 4 + | 1 + 2 + 3 + 4 + | 1 + 2 + 3 + 4 + |

GUITAR 1 [DISTORTED]
                   |------------Repeat-1x------------|
E -----------------|---------------------------------|
B -----------------|---------------------------------|
G -8888888888889999|-14141414141414131313131313131313|
D -x-x-x-x-x-x-x-x-|-x-x-x-x-x-x-x-x-x-x-x-x-x-x-x-x-|
A -6666666666667777|-12121212121212111111111111111111|
E -----------------|---------------------------------|
A -----------------|---------------------------------|
   1 + 2 + 3 + 4 + | 1 e + a 2 e + a 3 e + a 4 e + a |

|---------------------------------|---|
|---------------------------------|---|
|-111111111111119-9-9-9-9-9-9-9-9-|-6-| Hold last chord
|-x-x-x-x-x-x-x-x-x-x-x-x-x-x-x-x-|-x-| over first 2 bars
|-9-9-9-9-9-9-9-7-7-7-7-7-7-7-7-7-|-4-| of BRIDGE
|---------------------------------|---|
|---------------------------------|---|
  1 e + a 2 e + a 3 e + a 4 e + a |
GUITAR 2 [DISTORTED]
E -----------------|-----------------|-----------------|-----------------|---|
B -----------------|-----------------|-----------------|-----------------|---|
G -----------------|-----------------|-----------------|-----------------|---|
D -----------------|-----------------|-----------------|-----------------|---| Hold last chord
A -4---4--4-44-7-7-|-9---9--9-99-9-9-|-0---0--0-00-0-0-|-2---2--2-22-2-2-|-4-| over first 2 bars
E -4---4--4-44-7-7-|-9---9--9-99-9-9-|-0---0--0-00-0-0-|-2---2--2-22-2-2-|-4-| of BRIDGE
A -4---4--4-44-7-7-|-9---9--9-99-9-9-|-0---0--0-00-0-0-|-2---2--2-22-2-2-|-4-|
   1 + 2 + 3 + 4 + | 1 + 2 + 3 + 4 + | 1 + 2 + 3 + 4 + | 1 + 2 + 3 + 4 + |

BRIDGE
GUITAR 1 [CLEAN]
E -----------------|-4---------------|-----------------|-----------------|
B ----4--5----5----|----5----4--5--4-|-----------------|-----------------| Hold the chord here
G -6-------6-----6-|-------6---------|-6---------------|-----------------| and arpeggiate it
D -----------------|-----------------|-----------------|-----------------| so the notes ring out.
A -----------------|-----------------|-----------------|-----------------| Same in following
E -----------------|-----------------|-----------------|-----------------| 2 bars
A -----------------|-----------------|-----------------|-----------------|
   1 + 2 + 3 + 4 + | 1 + 2 + 3 + 4 + | 1 + 2 + 3 + 4 + | 1 + 2 + 3 + 4 + |
GUITAR 2 [CLEAN]
E -----------------|-----------------|-----------------|-7---------------|
B -----------------|-----------------|-----------------|-0---------------|
G -8---------------|---------8-------|-----------------|-6---------------|
D -11--------------|---------9-------|-11--------------|-----------------|
A -----------------|-----------------|-12--------------|-----------------|
E -----------------|-----------------|-----------------|-----------------|
A -----------------|-----------------|-----------------|-----------------|
   1 + 2 + 3 + 4 + | 1 + 2 + 3 + 4 + | 1 + 2 + 3 + 4 + | 1 + 2 + 3 + 4 + |

GUITAR 1 [CLEAN]                      [DISTORTED - 6/8]
E -----------------|-4-------7--9--7-|-------------0-0-0-0-0-0-|-------------------------|
B ----4--5----5----|----5------------|-------------5/4-4-4-4-4-|-------------------------|
G -6-------6-----6-|-------6---------|-------------------------|-------------------------|
D -----------------|-----------------|-------------------------|-------------------------|
A -----------------|-----------------|-0---0-0-----------------|-0---0-0---0-7-----------|
E -----------------|-----------------|-0---0-0-----------------|-0---0-0---0-7-----------|
A -----------------|-----------------|-0---0-0-----------------|-0---0-0---0-7-----------|
   1 + 2 + 3 + 4 + | 1 + 2 + 3 + 4 + | 1 + 2 + 3 + 4 + 5 + 6 + | 1 + 2 + 3 + 4 + 5 + 6 + |
GUITAR 2 [CLEAN]                      [DISTORTED - 6/8]
E -----------------|-----------------|-0---0-0-----------------|-0---0-0---0-------------|
B -----------------|-----------------|-0---0-0-----------------|-0---0-0---0-0-----------|
G -8---------------|---------8-------|-2---2-2-----------------|-2---2-2---2-4-----------|
D -11--------------|---------9-------|-2---2-2-----------------|-2---2-2---2-2-----------|
A -----------------|-----------------|-0---0-0-----------------|-0---0-0---0-2-----------|
E -----------------|-----------------|-------------------------|-------------------------|
A -----------------|-----------------|-------------------------|-------------------------|
   1 + 2 + 3 + 4 + | 1 + 2 + 3 + 4 + | 1 + 2 + 3 + 4 + 5 + 6 + | 1 + 2 + 3 + 4 + 5 + 6 + |

GUITAR 1 [DISTORTED - Play Twice]
E -------------------------|-------------------------|
B -------------------------|-------------------------|
G -------------------------|-------------------------|
D -------------------------|-------------------------|
A -7-4-4-4---4-5-4-4-4---4-|-7-4-4-4---4-5-4-4-4---4-|
E -------------------------|-------------------------|
A -------------------------|-------------------------|
   1 + 2 + 3 + 4 + 5 + 6 + | 1 + 2 + 3 + 4 + 5 + 6 + |

E -------------------------|-------------------------|
B -------------------------|-------------------------|
G -------------------------|-------------------------|
D -------------------------|-------------------------|
A -129-9-9---9-109-9-9---9-|-129-9-9---9-129-9-9---9-|
E -------------------------|-------------------------|
A -------------------------|-------------------------|
   1 + 2 + 3 + 4 + 5 + 6 + | 1 + 2 + 3 + 4 + 5 + 6 + |
GUITAR 2 [DISTORTED - Play Twice]
E -------------------------|-------------------------|
B -------------------------|-------------------------|
G -------------------------|-------------------------|
D -------------------------|-------------------------|
A -7-4---4---4-5-4---4---4-|-7-4---4---4-5-4---4---4-|
E -7-4---4---4-5-4---4---4-|-7-4---4---4-5-4---4---4-|
A -7-4---4---4-5-4---4---4-|-7-4---4---4-5-4---4---4-|
   1 + 2 + 3 + 4 + 5 + 6 + | 1 + 2 + 3 + 4 + 5 + 6 + |

E -------------------------|-------------------------|
B -------------------------|-------------------------|
G -------------------------|-------------------------|
D -------------------------|-------------------------|
A -129---9---9-109---9---9-|-129---9---9-129---9---9-|
E -129---9---9-109---9---9-|-129---9---9-129---9---9-|
A -129---9---9-109---9---9-|-129---9---9-129---9---9-|
   1 + 2 + 3 + 4 + 5 + 6 + | 1 + 2 + 3 + 4 + 5 + 6 + |

!!!BACK TO 4/4!!!

CHORUS (LEAD LINE FROM BREAK 1 PLAYS THROUGHOUT LAST CHORUS INTO THE OUTRO)
GUITAR 1 [DISTORTED]
E -----------------|-9-9-9-9-9-9-9-9-9-9-9-9-9-9-9-9-|-0---0--0-00-0-0-|-2---2--2-22-2-2-|
B -----------------|-101010101010109-9-9-9-9-9-9-9-9-|-0---0--0-00-0-0-|-2---2--2-22-2-2-|
G -----------------|-11111111111111111111111111111111|-2---2--2-22-2-2-|-4---4--4-44-4-4-|
D -----------------|-11111111111111111111111111111111|-2---2--2-22-2-2-|-4---4--4-44-4-4-|
A -----------4-FADE|-9-9-9-9-9-9-9-9-9-9-9-9-9-9-9-9-|-0---0--0-00-0-0-|-2---2--2-22-2-2-|
E -----------4--IN-|---------------------------------|-----------------|-----------------|
A -----------4-----|---------------------------------|-----------------|-----------------|
   1 + 2 + 3 + 4 + | 1 e + a 2 e + a 3 e + a 4 e + a | 1 + 2 + 3 + 4 + | 1 + 2 + 3 + 4 + |
GUITAR 2 [DISTORTED]
E -----------------|-----------------|-----------------|-----------------|
B -----------------|-----------------|-----------------|-----------------|
G -----------------|-----------------|-----------------|-----------------|
D -----------------|-----------------|-----------------|-----------------|
A -44-44-44-44-----|-9---9--9-99-9-9-|-0---0--0-00-0-0-|-2---2--2-22-2-2-|
E -44-44-44-44-----|-9---9--9-99-9-9-|-0---0--0-00-0-0-|-2---2--2-22-2-2-|
A -44-44-44-44-----|-9---9--9-99-9-9-|-0---0--0-00-0-0-|-2---2--2-22-2-2-|
   1 + 2 + 3 + 4 + | 1 + 2 + 3 + 4 + | 1 + 2 + 3 + 4 + | 1 + 2 + 3 + 4 + |

GUITAR 1 [DISTORTED]
E -4---4--4-44-7-7-|-9-9-9-9-9-9-9-9-9-9-9-9-9-9-9-9-|-0---0--0-00-0-0-|-2---2--2-22-2-2-|
B -5---5--5-55-7-7-|-101010101010109-9-9-9-9-9-9-9-9-|-0---0--0-00-0-0-|-2---2--2-22-2-2-|
G -6---6--6-66-9-9-|-11111111111111111111111111111111|-2---2--2-22-2-2-|-4---4--4-44-4-4-|
D -6---6--6-66-9-9-|-11111111111111111111111111111111|-2---2--2-22-2-2-|-4---4--4-44-4-4-|
A -4---4--4-44-7-7-|-9-9-9-9-9-9-9-9-9-9-9-9-9-9-9-9-|-0---0--0-00-0-0-|-2---2--2-22-2-2-|
E -----------------|---------------------------------|-----------------|-----------------|
A -----------------|---------------------------------|-----------------|-----------------|
   1 + 2 + 3 + 4 + | 1 e + a 2 e + a 3 e + a 4 e + a | 1 + 2 + 3 + 4 + | 1 + 2 + 3 + 4 + |
GUITAR 2 [DISTORTED]
E -----------------|-----------------|-----------------|-----------------|
B -----------------|-----------------|-----------------|-----------------|
G -----------------|-----------------|-----------------|-----------------|
D -----------------|-----------------|-----------------|-----------------|
A -4---4--4-44-7-7-|-9---9--9-99-9-9-|-0---0--0-00-0-0-|-2---2--2-22-2-2-|
E -4---4--4-44-7-7-|-9---9--9-99-9-9-|-0---0--0-00-0-0-|-2---2--2-22-2-2-|
A -4---4--4-44-7-7-|-9---9--9-99-9-9-|-0---0--0-00-0-0-|-2---2--2-22-2-2-|
   1 + 2 + 3 + 4 + | 1 + 2 + 3 + 4 + | 1 + 2 + 3 + 4 + | 1 + 2 + 3 + 4 + |

OUTRO
GUITAR 1 [DISTORTED]
                   |----------------------------Repeat-1x------------------------------|
E -----------------|---------------------------------|---------------------------------|
B -----------------|---------------------------------|---------------------------------|
G -6666666666669999|-14141414141414131313131313131313|-111111111111119-9-9-9-9-9-9-9-9-|
D -x-x-x-x-x-x-x-x-|-x-x-x-x-x-x-x-x-x-x-x-x-x-x-x-x-|-x-x-x-x-x-x-x-x-x-x-x-x-x-x-x-x-|
A -4444444444447777|-12121212121212111111111111111111|-9-9-9-9-9-9-9-7-7-7-7-7-7-7-7---|
E -----------------|---------------------------------|---------------------------------|
A -----------------|---------------------------------|---------------------------------|
   1 + 2 + 3 + 4 + | 1 e + a 2 e + a 3 e + a 4 e + a | 1 e + a 2 e + a 3 e + a 4 e + a |
GUITAR 2 [DISTORTED]
E -----------------|-----------------|-----------------|-----------------|
B -----------------|-----------------|-----------------|-----------------|
G -----------------|-----------------|-----------------|-----------------|
D -----------------|-----------------|-----------------|-----------------|
A -4---4--4-44-7-7-|-9---9--9-99-9-9-|-0---0--0-00-0-0-|-2---2--2-22-2-2-|
E -4---4--4-44-7-7-|-9---9--9-99-9-9-|-0---0--0-00-0-0-|-2---2--2-22-2-2-|
A -4---4--4-44-7-7-|-9---9--9-99-9-9-|-0---0--0-00-0-0-|-2---2--2-22-2-2-|
   1 + 2 + 3 + 4 + | 1 + 2 + 3 + 4 + | 1 + 2 + 3 + 4 + | 1 + 2 + 3 + 4 + |

GUITAR 1 [DISTORTED]
                   |-----------------------------Repeat-1x-----------------------------|
E -----------------|---------------------------------|---------------------------------|
B -----------------|---------------------------------|---------------------------------|
G -8888888888889999|-14141414141414131313131313131313|-111111111111119-9-9-9-9-9-9-9-9-|
D -x-x-x-x-x-x-x-x-|-x-x-x-x-x-x-x-x-x-x-x-x-x-x-x-x-|-x-x-x-x-x-x-x-x-x-x-x-x-x-x-x-x-|
A -6666666666667777|-12121212121212111111111111111111|-9-9-9-9-9-9-9-7-7-7-7-7-7-7-7-7-|
E -----------------|---------------------------------|---------------------------------|
A -----------------|---------------------------------|---------------------------------|
   1 + 2 + 3 + 4 + | 1 e + a 2 e + a 3 e + a 4 e + a | 1 e + a 2 e + a 3 e + a 4 e + a |
GUITAR 2 [DISTORTED]
E -----------------|-----------------|-----------------|-----------------|
B -----------------|-----------------|-----------------|-----------------|
G -----------------|-----------------|-----------------|-----------------|
D -----------------|-----------------|-----------------|-----------------|
A -4---4--4-44-7-7-|-9---9--9-99-9-9-|-0---0--0-00-0-0-|-2---2--2-22-2-2-|
E -4---4--4-44-7-7-|-9---9--9-99-9-9-|-0---0--0-00-0-0-|-2---2--2-22-2-2-|
A -4---4--4-44-7-7-|-9---9--9-99-9-9-|-0---0--0-00-0-0-|-2---2--2-22-2-2-|
   1 + 2 + 3 + 4 + | 1 + 2 + 3 + 4 + | 1 + 2 + 3 + 4 + | 1 + 2 + 3 + 4 + |

GUITAR 1 [CLEAN]
E -----------------|-4---------------|-----------------|-----------------|
B ----4--5----5----|----5----4--5--4-|-----------------|-----------------| Hold the chord here
G -6-------6-----6-|-------6---------|-6---------------|-----------------| and arpeggiate it
D -----------------|-----------------|-----------------|-----------------| so the notes ring out.
A -----------------|-----------------|-----------------|-----------------|
E -----------------|-----------------|-----------------|-----------------|
A -----------------|-----------------|-----------------|-----------------|
   1 + 2 + 3 + 4 + | 1 + 2 + 3 + 4 + | 1 + 2 + 3 + 4 + | 1 + 2 + 3 + 4 + |
GUITAR 2 [DISTORTED - Fade Out]
E -----------------|-----------------|-----------------|-----------------|
B -----------------|-----------------|-----------------|-----------------|
G -----------------|-----------------|-----------------|-----------------|
D -----------------|-----------------|-----------------|-----------------|
A -4---------------|-----------------|-----------------|-----------------|
E -4---------------|-----------------|-----------------|-----------------|
A -4---------------|-----------------|-----------------|-----------------|

END

NOTE: UPDATED 20/6/2011 after meeting & jamming with both Marcus & Brandon &          
      doing some investigation into parts.
      Here's a YouTube link to a vid of me rocking this tune: http://youtu.be/S9zBdSxXsLE

            
            
Suggest correction
Creating personal tab
Creating personal tab
You can edit any tab online and save it as your Personal.

You can edit, replace or remove any tab part or add personal notes – all changes will be seen only by you.

Personal tabs can be accessed anytime from any device, even offline.
Learn more »
comments
print report bad tab
1 comment total.
0 reply
bloodred16 801 Oct 09, 2007 01:29 AM

Kicks my tab's ass. Awesome job, love it >=D 5/5

guest
You may want to rate the tab now too:
select rating
Wanna post a correction for this tab? Suggest correction