Oops, an error
Loading. Please wait.
We have Chord Pro version of 68.
It's the closest thing you can get to the original song and it has interactive parts. Check out the tab »
×

68 tab

version 2
version 2

Whole song

  • Full tab of Blink 182's song 6-8, including lead o... Show more
  • This is mainly the rhythm guitar of this new song.... Show more

Interactive

1,657 views 60 this week
1 commentread comment
1 2 3 4 5
x 5
add to favorites
×
Save as Personal and add changes to this tab that will be seen only by you. Learn more ›
×
You can save this tab as Personal to edit and correct it or add notes. All changes will be seen only by you. Learn more »
launch autoscroll
font size
0
reset
how to read this tab
guitar tuner
edit
Autoscroll
slow
fast
+/-
esc
set tempo
stop
About this tab version
Full tab of Blink 182's song 6-8, including lead overdubs. Please rate or comment. Was this info helpful? Yes No
Blink 182 : "6-8"
Tuning - Drop D
Tabbed by jjhand

[Intro]

e|-------------------------------|-------------------------------------|
B|-------------------------------|-------------------------------------|
G|-------------10-10-10-10-10-10-|-10-10-10-10-10-10-10-10-10-10-10-10-|
D|-0---0---0---0--0--0--0--0--0--|-0--0--0--0--0--0--0--0--0--0--0--0--| play 2x
A|-0---0---0---8--8--8--8--8--8--|-8--8--8--8--8--8--8--8--8--8--8--8--|
D|-0---0---0---------------------|-------------------------------------|

e|-------------------------------|-------------------------------------|
B|-------------------------------|-------------------------------------|
G|-------------14-14-14-14-14-14-|-14-14-14-14-14-14-14-14-14-14-14-14-|
D|-0---0---0---x--x--x--x--x--x--|-x--x--x--x--x--x--x--x--x--x--x--x--| play 2x
A|-0---0---0---12-12-12-12-12-12-|-12-12-12-12-12-12-12-12-12-12-12-12-|
D|-0---0---0---0--0--0--0--0--0--|-0--0--0--0--0--0--0--0--0--0--0--0--|



[Verse]

e|-------------------------------|-------------------------------------|
B|-------------------------------|-------------------------------------|
G|-------------------------------|-------------------------------------|
D|-0---0---0---------------------|--rest-------------------------------| play 2x
A|-0---0---0---------------------|-------------------------------------|
D|-0---0---0---------------------|-------------------------------------|

e|--------------------------|--------------------------|
B|--------------------------|--------------------------|
G|--------------------------|--------------------------|
D|-8---8---8---8---8---8----|-8---8---8---8---8---8----|
A|-8---8---8---8---8---8----|-8---8---8---8---8---8----|
D|-8---8---8---8---8---8----|-8---8---8---8---8---8----|

e|-------------------------------|-------------------------------------|
B|-------------------------------|-------------------------------------|
G|-------------10-10-10-10-10-10-|-10-10-10-10-10-10-10-10-10-10-10-10-|
D|-0---0---0---x--x--x--x--x--x--|-x--x--x--x--x--x--x--x--x--x--x--x--| play 2x
A|-0---0---0---8--8--8--8--8--8--|-8--8--8--8--8--8--8--8--8--8--8--8--|
D|-0---0---0---0--0--0--0--0--0--|-0--0--0--0--0--0--0--0--0--0--0--0--|



[Chorus]

   Guitar 1
e|--------------------------|-------------------------|-------------------------|
B|--------------------------|-------------------------|-------------------------|
G|--------------------------|-5-----------5-----------|-7-----------7-----------|
D|-3------------3-----------|-5-----------5-----------|-7-----------7-----------|
A|-3------------3-----------|-3-----------3-----------|-5-----------5-----------|
D|-3------------3-----------|-------------------------|-------------------------|
 |
 | Guitar 2
e|-13-----------13----------|-------------12----------|-------------10----------|
B|--------------------------|-----13----------13------|-----10----------10------|
G|-10-----------10----------|-14------14----------14--|-------------------------|
D|--------------------------|-------------------------|-------------------------|
A|--------------------------|-------------------------|-------------------------|
E|--------------------------|-------------------------|-------------------------|

   Guitar 1
e|--------------------------|-------------------------|-------------------------|
B|--------------------------|-------------------------|-------------------------|
G|--------------------------|-------------------------|-5-----------5-----------|
D|-8------------8-----------|-3-----------3-----------|-5-----------5-----------|
A|-8------------8-----------|-3-----------3-----------|-3-----------3-----------|
E|-8------------8-----------|-3-----------3-----------|-------------------------|
 |
 | Guitar 2
e|-10----------10-----------|------------13-----------|-------------12----------|
B|-----11----------11-------|-------------------------|-----13----------13------|
G|---------10----------10---|-10----------------------|-10------------------10--|
D|--------------------------|-------------------------|-------------------------|
A|--------------------------|-------------------------|-------------------------|
E|--------------------------|-------------------------|-------------------------|

   Both Guitars
e|--------------------------------|-------------------------------------|
B|--------------------------------|-------------------------------------|
G|-------------10-10-10-10-10-10--|-10-10-10-10-10-10-10-10-10-10-10-10-|
D|-0---0---0---0--0--0--0--0--0---|-0--0--0--0--0--0--0--0--0--0--0--0--|
A|-0---0---0---8--8--8--8--8--8---|-8--8--8--8--8--8--8--8--8--8--8--8--|
E|-0---0---0----------------------|-------------------------------------|

Play above Chorus 2x


[Chorus Ending]
e|--------------------------------|-------------------------------------|
B|--------------------------------|-------------------------------------|
G|-------------10-10-10-10-10-10--|-10-10-10-10-10-10-10-10-10-10-10-10-|
D|-0---0---0---0--0--0--0--0--0---|-0--0--0--0--0--0--0--0--0--0--0--0--|
A|-0---0---0---8--8--8--8--8--8---|-8--8--8--8--8--8--8--8--8--8--8--8--|
E|-0---0---0----------------------|-------------------------------------|



[Verse]

e|-------------------------------|-------------------------------------|
B|-------------------------------|-------------------------------------|
G|-------------------------------|-------------------------------------|
D|-0---0---0---------------------|--rest-------------------------------| play 2x
A|-0---0---0---------------------|-------------------------------------|
D|-0---0---0---------------------|-------------------------------------|

e|--------------------------|--------------------------|
B|--------------------------|--------------------------|
G|--------------------------|--------------------------|
D|-8---8---8---8---8---8----|-8---8---8---8---8---8----|
A|-8---8---8---8---8---8----|-8---8---8---8---8---8----|
D|-8---8---8---8---8---8----|-8---8---8---8---8---8----|

e|-------------------------------|-------------------------------------|
B|-------------------------------|-------------------------------------|
G|-------------10-10-10-10-10-10-|-10-10-10-10-10-10-10-10-10-10-10-10-|
D|-0---0---0---x--x--x--x--x--x--|-x--x--x--x--x--x--x--x--x--x--x--x--| play 2x
A|-0---0---0---8--8--8--8--8--8--|-8--8--8--8--8--8--8--8--8--8--8--8--|
D|-0---0---0---0--0--0--0--0--0--|-0--0--0--0--0--0--0--0--0--0--0--0--|

e|-------------------------------|-------------------------------------|
B|-------------------------------|-------------------------------------|
G|-------------------------------|-------------------------------------|
D|-0---0---0---------------------|--rest-------------------------------| play 2x
A|-0---0---0---------------------|-------------------------------------|
D|-0---0---0---------------------|-------------------------------------|

e|--------------------------|--------------------------|
B|--------------------------|--------------------------|
G|--------------------------|--------------------------|
D|-8---8---8---8---8---8----|-8---8---8---8---8---8----|
A|-8---8---8---8---8---8----|-8---8---8---8---8---8----|
D|-8---8---8---8---8---8----|-8---8---8---8---8---8----|

e|-------------------------------|-------------------------------------|
B|-------------------------------|-------------------------------------|
G|-------------10-10-10-10-10-10-|-10-10-10-10-10-10-10-10-10-10-10-10-|
D|-0---0---0---x--x--x--x--x--x--|-x--x--x--x--x--x--x--x--x--x--x--x--| play 2x
A|-0---0---0---8--8--8--8--8--8--|-8--8--8--8--8--8--8--8--8--8--8--8--|
D|-0---0---0---0--0--0--0--0--0--|-0--0--0--0--0--0--0--0--0--0--0--0--|



[Chorus 2]

   Guitar 1
e|--------------------------|-------------------------|-------------------------|
B|--------------------------|-------------------------|-------------------------|
G|--------------------------|-5-----------5-----------|-7-----------7-----------|
D|-3------------3-----------|-5-----------5-----------|-7-----------7-----------|
A|-3------------3-----------|-3-----------3-----------|-5-----------5-----------|
D|-3------------3-----------|-------------------------|-------------------------|
 |
 | Guitar 2
e|-13-----------13----------|-------------12----------|-------------10----------|
B|--------------------------|-----13----------13------|-----10----------10------|
G|-10-----------10----------|-14------14----------14--|-------------------------|
D|--------------------------|-------------------------|-------------------------|
A|--------------------------|-------------------------|-------------------------|
E|--------------------------|-------------------------|-------------------------|

   Guitar 1
e|--------------------------|-------------------------|-------------------------|
B|--------------------------|-------------------------|-------------------------|
G|--------------------------|-------------------------|-5-----------5-----------|
D|-8------------8-----------|-3-----------3-----------|-5-----------5-----------|
A|-8------------8-----------|-3-----------3-----------|-3-----------3-----------|
E|-8------------8-----------|-3-----------3-----------|-------------------------|
 |
 | Guitar 2
e|-10----------10-----------|------------13-----------|-------------12----------|
B|-----11----------11-------|-------------------------|-----13----------13------|
G|---------10----------10---|-10----------------------|-10------------------10--|
D|--------------------------|-------------------------|-------------------------|
A|--------------------------|-------------------------|-------------------------|
E|--------------------------|-------------------------|-------------------------|

   Both Guitars
e|--------------------------------|-------------------------------------|
B|--------------------------------|-------------------------------------|
G|-------------10-10-10-10-10-10--|-10-10-10-10-10-10-10-10-10-10-10-10-|
D|-0---0---0---0--0--0--0--0--0---|-0--0--0--0--0--0--0--0--0--0--0--0--|
A|-0---0---0---8--8--8--8--8--8---|-8--8--8--8--8--8--8--8--8--8--8--8--|
E|-0---0---0----------------------|-------------------------------------|

Play above Chorus 2x



[Chorus 2 Ending]

e|-------------------------------|-------------------------------------|
B|-------------------------------|-------------------------------------|
G|-------------10-10-10-10-10-10-|-10-10-10-10-10-10-10-10-10-10-10-10-|
D|-0---0---0---0--0--0--0--0--0--|-0--0--0--0--0--0--0--0--0--0--0--0--|
A|-0---0---0---8--8--8--8--8--8--|-8--8--8--8--8--8--8--8--8--8--8--8--|
D|-0---0---0---------------------|-------------------------------------|

e|-------------------------------|-------------------------------------|
B|-------------------------------|-------------------------------------|
G|-------------14-14-14-14-14-14-|-14-14-14-14-14-14-14-14-14-14-14-14-|
D|-0---0---0---x--x--x--x--x--x--|-x--x--x--x--x--x--x--x--x--x--x--x--| play 2x
A|-0---0---0---12-12-12-12-12-12-|-12-12-12-12-12-12-12-12-12-12-12-12-|
D|-0---0---0---0--0--0--0--0--0--|-0--0--0--0--0--0--0--0--0--0--0--0--|



[Bridge]

Rest during orchestral part, then play at (2:41)

e|-------------------|-------------------|-------------------|-------------------|
B|-------------------|-------------------|-------------------|-------------------|
G|-------------------|-------------------|-------------------|-------------------|
D|-7--7--7--7--7--7--|-5--5--5--5--5--5--|-3--3--3--3--3--3--|-3--3--3--0--2--3--|
A|-5--5--5--5--5--5--|-3--3--3--3--3--3--|-1--1--1--1--1--1--|-1--1--1-----------|
E|-------------------|-------------------|-------------------|-------------------|

e|-------------------|-------------------|-------------------|-------------------|
B|-------------------|-------------------|-------------------|-------------------|
G|-------------------|-------------------|-------------------|-------------------|
D|-7--7--7--7--7--7--|-5--5--5--5--5--5--|-3--3--3--3--3--3--|-3--3--3--3--3--3--|
A|-5--5--5--5--5--5--|-3--3--3--3--3--3--|-1--1--1--1--1--1--|-1--1--1--1--1--1--|
E|-------------------|-------------------|-------------------|-------------------|


  Lead
e|-------------------|-18-------17-------|-20~---------------|-18-------17-------|
B|-18~---------------|-------------------|-------------------|-------------------|
G|-------------------|-------------------|-------------------|-------------------|
D|-------------------|-------------------|-------------------|-------------------|
A|-------------------|-------------------|-------------------|-------------------|
E|-------------------|-------------------|-------------------|-------------------|
 |
 |
e|-------------------|-------------------|-------------------|-------------------|
B|-------------------|-------------------|-------------------|-------------------|
G|-------------------|-------------------|-------------------|-------------------|
D|-7--7--7--7--7--7--|-5--5--5--5--5--5--|-3--3--3--3--3--3--|-3--3--3--0--2--3--|
A|-5--5--5--5--5--5--|-3--3--3--3--3--3--|-1--1--1--1--1--1--|-1--1--1-----------|
E|-------------------|-------------------|-------------------|-------------------|


e|-------------------|-18-------17-------|-20~-------18-------|-17----------------------|
B|-18~---------------|-------------------|--------------------|-------------17----------|
G|-------------------|-------------------|--------------------|-------------------------|
D|-------------------|-------------------|--------------------|-------------------------|
A|-------------------|-------------------|--------------------|-------------------------|
E|-------------------|-------------------|--------------------|-------------------------|
 |
 |
e|-------------------|-------------------|--------------------|-------------------------|
B|-------------------|-------------------|--------------------|-------------------------|
G|-------------------|-------------------|-3-3--3-3--3-3--3-3-|-3-3-3-3-3-3-3-3-3-3-3-3-|
D|-7--7--7--7--7--7--|-5--5--5--5--5--5--|-3-3--3-3--3-3--3-3-|-3-3-3-3-3-3-3-3-3-3-3-3-|
A|-5--5--5--5--5--5--|-3--3--3--3--3--3--|-1-1--1-1--1-1--1-1-|-1-1-1-1-1-1-1-1-1-1-1-1-|
E|-------------------|-------------------|--------------------|-------------------------|
                                           > >  > >  > >  > >


[Final Chorus]

   quieter 
e|-------------------|-------------------|--------------------|-----------------|
B|-------------------|-5-----------------|-6------------------|-3---------------|
G|-------------------|-------------------|--------------------|-----------------|
D|-3-----------------|-5-----------------|-7------------------|-3---------------|
A|-------------------|-------------------|--------------------|-----------------|
E|-------------------|-------------------|--------------------|-----------------|


   Guitar 1, full volume
e|-------------------------|-------------------------|
B|-------------------------|-------------------------|
G|-------------------------|-5-----------5-----------|
D|-3-----------3-----------|-5-----------5-----------|
A|-3-----------3-----------|-3-----------3-----------|
E|-3-----------3-----------|-------------------------|
 |
 | Guitar 2
e|------------13-----------|-------------12----------|
B|-------------------------|-----13----------13------|
G|-10----------------------|-10------------------10--|
D|-------------------------|-------------------------|
A|-------------------------|-------------------------|
E|-------------------------|-------------------------|

   Both Guitars
e|--------------------------------|-------------------------------------|
B|--------------------------------|-------------------------------------|
G|-------------10-10-10-10-10-10--|-10-10-10-10-10-10-10-10-10-10-10-10-|
D|-0---0---0---0--0--0--0--0--0---|-0--0--0--0--0--0--0--0--0--0--0--0--|
A|-0---0---0---8--8--8--8--8--8---|-8--8--8--8--8--8--8--8--8--8--8--8--|
E|-0---0---0----------------------|-------------------------------------|



[Final Chorus Part 2]

   Guitar 1
e|--------------------------|-------------------------|-------------------------|
B|--------------------------|-------------------------|-------------------------|
G|--------------------------|-5-----------5-----------|-7-----------7-----------|
D|-3------------3-----------|-5-----------5-----------|-7-----------7-----------|
A|-3------------3-----------|-3-----------3-----------|-5-----------5-----------|
D|-3------------3-----------|-------------------------|-------------------------|
 |
 | Guitar 2
e|-13-----------13----------|-------------12----------|-------------10----------|
B|--------------------------|-----13----------13------|-----10----------10------|
G|-10-----------10----------|-14------14----------14--|-------------------------|
D|--------------------------|-------------------------|-------------------------|
A|--------------------------|-------------------------|-------------------------|
E|--------------------------|-------------------------|-------------------------|

   Guitar 1
e|--------------------------|-------------------------|-------------------------|
B|--------------------------|-------------------------|-------------------------|
G|--------------------------|-------------------------|-5-----------5-----------|
D|-8------------8-----------|-3-----------3-----------|-5-----------5-----------|
A|-8------------8-----------|-3-----------3-----------|-3-----------3-----------|
E|-8------------8-----------|-3-----------3-----------|-------------------------|
 |
 | Guitar 2
e|-10----------10-----------|------------13-----------|-------------12----------|
B|-----11----------11-------|-------------------------|-----13----------13------|
G|---------10----------10---|-10----------------------|-10------------------10--|
D|--------------------------|-------------------------|-------------------------|
A|--------------------------|-------------------------|-------------------------|
E|--------------------------|-------------------------|-------------------------|

   Both Guitars
e|--------------------------------|-------------------------------------|
B|--------------------------------|-------------------------------------|
G|-------------10-10-10-10-10-10--|-10-10-10-10-10-10-10-10-10-10-10-10-|
D|-0---0---0---0--0--0--0--0--0---|-0--0--0--0--0--0--0--0--0--0--0--0--| play 2x
A|-0---0---0---8--8--8--8--8--8---|-8--8--8--8--8--8--8--8--8--8--8--8--|
E|-0---0---0----------------------|-------------------------------------|

e|-------------------------------|-------------------------------------|
B|-------------------------------|-------------------------------------|
G|-------------14-14-14-14-14-14-|-14-14-14-14-14-14-14-14-14-14-14-14-|
D|-0---0---0---x--x--x--x--x--x--|-x--x--x--x--x--x--x--x--x--x--x--x--| play 2x
A|-0---0---0---12-12-12-12-12-12-|-12-12-12-12-12-12-12-12-12-12-12-12-|
D|-0---0---0---0--0--0--0--0--0--|-0--0--0--0--0--0--0--0--0--0--0--0--|

e|-------------------------------|
B|-------------------------------|
G|-------------------------------|
D|-0-----------------------------|
A|-0-----------------------------|
E|-0-----------------------------|


************************************

| x   Dead note
| >   Accented note
| ~   Vibrato
| PM  Palm mute
| TR  Trill
| N   Tremolo

************************************
Suggest correction
Creating personal tab
Creating personal tab
You can edit any tab online and save it as your Personal.

You can edit, replace or remove any tab part or add personal notes – all changes will be seen only by you.

Personal tabs can be accessed anytime from any device, even offline.
Learn more »
comments
print report bad tab
1 comment total.
0 reply
sfspithorst 43 Apr 30, 2017 10:13 AM

solid tab, thanks!

guest
You may want to rate the tab now too:
select rating
Wanna post a correction for this tab? Suggest correction