Oops, an error
Loading. Please wait.
We have Chord Pro version of 6 8.
It's the closest thing you can get to the original song and it has interactive parts. Check out the tab »
×

6 8 tab

version 3
version 3

Whole song

  • Full tab of Blink 182's song 6-8, including lead o... Show more
  • This is mainly the rhythm guitar of this new song.... Show more

Interactive

667 views 6 this week
no commentswrite comment
1 2 3 4 5
x 5
add to favorites
×
Save as Personal and add changes to this tab that will be seen only by you. Learn more ›
×
You can save this tab as Personal to edit and correct it or add notes. All changes will be seen only by you. Learn more »
launch autoscroll
font size
0
reset
how to read this tab
guitar tuner
edit
Autoscroll
slow
fast
+/-
esc
set tempo
stop
About this tab version
This is mainly the rhythm guitar of this new song. It has the basis structure to play along with the song. Was this info helpful? Yes No
[Intro]

e|---------------------------------------------------------------------------|
B|--------6-6-6-6-6-6-6-6-6-6-6-6--------------------------------------------|
G|-2-2-2--7-7-7-7-7-7-7-7-7-7-7-7--------------------------------------------|
D|-0-0-0---------------------------------------------------------------------|
A|---------------------------------------------------------------------------|
E|---------------------------------------------------------------------------|

e|---------------------------------------------------------------------------|
B|--------6-6-6-6-6-6-6-6-6-6-6-6--------------------------------------------|
G|-2-2-2--7-7-7-7-7-7-7-7-7-7-7-7--------------------------------------------|
D|-0-0-0---------------------------------------------------------------------|
A|---------------------------------------------------------------------------|
E|---------------------------------------------------------------------------|

e|---------------------------------------------------------------------------|
B|--------6-6-6-6-6-6-6-6-6-6-6-6--------------------------------------------|
G|-2-2-2--7-7-7-7-7-7-7-7-7-7-7-7--------------------------------------------|
D|-0-0-0---------------------------------------------------------------------|
A|---------------------------------------------------------------------------|
E|---------------------------------------------------------------------------|

e|---------------------------------------------------------------------------|
B|--------6-6-6-6-6-6-6-6-6-6-6-6--------------------------------------------|
G|-2-2-2--7-7-7-7-7-7-7-7-7-7-7-7--------------------------------------------|
D|-0-0-0---------------------------------------------------------------------|
A|---------------------------------------------------------------------------|
E|---------------------------------------------------------------------------|


[Verse]
Gt I
e|-------------|--------------------------|---------------------------------------|
B|-------------|--------------------------|---------------------------------------|
G|-7-7---7-7---|-3-3-3-3-3-3-3-3-3-3-3-3--|--7-7-7-7-7-7-7-7-7-7-7-7--------------|
D|-7-7---7-7---|-3-3-3-3-3-3-3-3-3-3-3-3--|--7-7-7-7-7-7-7-7-7-7-7-7--------------|
A|-5-5---5-5---|-1-1-1-1-1-1-1-1-1-1-1-1--|--5-5-5-5-5-5-5-5-5-5-5-5--------------|
E|-------------|--------------------------|---------------------------------------|
Gt II
e|-----------------------------------------------------------------------------|
B|-------------------------------------------6-6-6-6-6-6-6-6-6-6-6-6-----------|
G|-------------------------------------------7-7-7-7-7-7-7-7-7-7-7-7-----------|
D|-----------------------------------------------------------------------------|
A|-----------------------------------------------------------------------------|
E|-----------------------------------------------------------------------------|

Gt I
e|------------------------------------------------------------------------------|
B|------------------------------------------------------------------------------|
G|-7-7---7-7----3-----------7---------------------------------------------------|
D|-7-7---7-7----3--(x12)----7--(x12)--------------------------------------------|
A|-5-5---5-5----1-----------5---------------------------------------------------|
E|------------------------------------------------------------------------------|
Gt II
e|---------------------------------------------------------------------------|
B|--------------------------6-6-6-6-6-6-6-6-6-6-6-6--------------------------|
G|--------------------------7-7-7-7-7-7-7-7-7-7-7-7--------------------------|
D|---------------------------------------------------------------------------|
A|---------------------------------------------------------------------------|
E|---------------------------------------------------------------------------|

[Chorus]

e|-------------------------|-------------------------|-------------------------|-------------------------|
B|-------------------------|-------------------------|-------------------------|-------------------------|
G|-------------------------|-5-5-5-5-5-5-5-5-5-5-5-5-|-7-7-7-7-7-7-7-7-7-7-7-7-|-3-3-3-3-3-3-3-3-3-3-3-3-|
D|-3-3-3-3-3-3-3-3-3-3-3-3-|-5-5-5-5-5-5-5-5-5-5-5-5-|-7-7-7-7-7-7-7-7-7-7-7-7-|-3-3-3-3-3-3-3-3-3-3-3-3-|
A|-3-3-3-3-3-3-3-3-3-3-3-3-|-3-3-3-3-3-3-3-3-3-3-3-3-|-5-5-5-5-5-5-5-5-5-5-5-5-|-1-1-1-1-1-1-1-1-1-1-1-1-|
E|-1-1-1-1-1-1-1-1-1-1-1-1-|-------------------------|-------------------------|-------------------------|

e|-------------------------|-------------------------|-------------------------|-------------------------|
B|-------------------------|-------------------------|-------------------------|-------------------------|
G|-------------------------|-5-5-5-5-5-5-5-5-5-5-5-5-|-7-7-7-7-7-7-7-7-7-7-7-7-|-3-3-3-3-3-3-3-3-3-3-3-3-|
D|-3-3-3-3-3-3-3-3-3-3-3-3-|-5-5-5-5-5-5-5-5-5-5-5-5-|-7-7-7-7-7-7-7-7-7-7-7-7-|-3-3-3-3-3-3-3-3-3-3-3-3-|
A|-3-3-3-3-3-3-3-3-3-3-3-3-|-3-3-3-3-3-3-3-3-3-3-3-3-|-5-5-5-5-5-5-5-5-5-5-5-5-|-1-1-1-1-1-1-1-1-1-1-1-1-|
E|-1-1-1-1-1-1-1-1-1-1-1-1-|-------------------------|-------------------------|-------------------------|

e|-------------------------|-------------------------|-------------------------|-------------------------|
B|-------------------------|-------------------------|-------------------------|-------------------------|
G|-------------------------|-5-5-5-5-5-5-5-5-5-5-5-5-|-7-7-7-7-7-7-7-7-7-7-7-7-|-3-3-3-3-3-3-3-3-3-3-3-3-|
D|-3-3-3-3-3-3-3-3-3-3-3-3-|-5-5-5-5-5-5-5-5-5-5-5-5-|-7-7-7-7-7-7-7-7-7-7-7-7-|-3-3-3-3-3-3-3-3-3-3-3-3-|
A|-3-3-3-3-3-3-3-3-3-3-3-3-|-3-3-3-3-3-3-3-3-3-3-3-3-|-5-5-5-5-5-5-5-5-5-5-5-5-|-1-1-1-1-1-1-1-1-1-1-1-1-|
E|-1-1-1-1-1-1-1-1-1-1-1-1-|-------------------------|-------------------------|-------------------------|

e|-------------------------|-------------------------|-------------------------|-------------------------|
B|-------------------------|-------------------------|-------------------------|-------------------------|
G|-------------------------|-5-5-5-5-5-5-5-5-5-5-5-5-|-7-7-7-7-7-7-7-7-7-7-7-7-|-3-3-3-3-3-3-3-3-3-3-3-3-|
D|-3-3-3-3-3-3-3-3-3-3-3-3-|-5-5-5-5-5-5-5-5-5-5-5-5-|-7-7-7-7-7-7-7-7-7-7-7-7-|-3-3-3-3-3-3-3-3-3-3-3-3-|
A|-3-3-3-3-3-3-3-3-3-3-3-3-|-3-3-3-3-3-3-3-3-3-3-3-3-|-5-5-5-5-5-5-5-5-5-5-5-5-|-1-1-1-1-1-1-1-1-1-1-1-1-|
E|-1-1-1-1-1-1-1-1-1-1-1-1-|-------------------------|-------------------------|-------------------------|

[Intro]

e|---------------------------------------------------------------------------|
B|--------6-6-6-6-6-6-6-6-6-6-6-6--------------------------------------------|
G|-2-2-2--7-7-7-7-7-7-7-7-7-7-7-7--------------------------------------------|
D|-0-0-0---------------------------------------------------------------------|
A|---------------------------------------------------------------------------|
E|---------------------------------------------------------------------------|

e|---------------------------------------------------------------------------|
B|--------6-6-6-6-6-6-6-6-6-6-6-6--------------------------------------------|
G|-2-2-2--7-7-7-7-7-7-7-7-7-7-7-7--------------------------------------------|
D|-0-0-0---------------------------------------------------------------------|
A|---------------------------------------------------------------------------|
E|---------------------------------------------------------------------------|



[Verse]
Gt I
e|-------------|--------------------------|---------------------------------------|
B|-------------|--------------------------|---------------------------------------|
G|-7-7---7-7---|-3-3-3-3-3-3-3-3-3-3-3-3--|--7-7-7-7-7-7-7-7-7-7-7-7--------------|
D|-7-7---7-7---|-3-3-3-3-3-3-3-3-3-3-3-3--|--7-7-7-7-7-7-7-7-7-7-7-7--------------|
A|-5-5---5-5---|-1-1-1-1-1-1-1-1-1-1-1-1--|--5-5-5-5-5-5-5-5-5-5-5-5--------------|
E|-------------|--------------------------|---------------------------------------|
Gt II
e|-----------------------------------------------------------------------------|
B|-------------------------------------------6-6-6-6-6-6-6-6-6-6-6-6-----------|
G|-------------------------------------------7-7-7-7-7-7-7-7-7-7-7-7-----------|
D|-----------------------------------------------------------------------------|
A|-----------------------------------------------------------------------------|
E|-----------------------------------------------------------------------------|

Gt I
e|-------------|--------------------------|---------------------------------------|
B|-------------|--------------------------|---------------------------------------|
G|-7-7---7-7---|-3-3-3-3-3-3-3-3-3-3-3-3--|--7-7-7-7-7-7-7-7-7-7-7-7--------------|
D|-7-7---7-7---|-3-3-3-3-3-3-3-3-3-3-3-3--|--7-7-7-7-7-7-7-7-7-7-7-7--------------|
A|-5-5---5-5---|-1-1-1-1-1-1-1-1-1-1-1-1--|--5-5-5-5-5-5-5-5-5-5-5-5--------------|
E|-------------|--------------------------|---------------------------------------|
Gt II
e|-----------------------------------------------------------------------------|
B|-------------------------------------------6-6-6-6-6-6-6-6-6-6-6-6-----------|
G|-------------------------------------------7-7-7-7-7-7-7-7-7-7-7-7-----------|
D|-----------------------------------------------------------------------------|
A|-----------------------------------------------------------------------------|
E|-----------------------------------------------------------------------------|

[Chorus]
e|-------------------------|-------------------------|-------------------------|-------------------------|
B|-------------------------|-------------------------|-------------------------|-------------------------|
G|-------------------------|-5-5-5-5-5-5-5-5-5-5-5-5-|-7-7-7-7-7-7-7-7-7-7-7-7-|-3-3-3-3-3-3-3-3-3-3-3-3-|
D|-3-3-3-3-3-3-3-3-3-3-3-3-|-5-5-5-5-5-5-5-5-5-5-5-5-|-7-7-7-7-7-7-7-7-7-7-7-7-|-3-3-3-3-3-3-3-3-3-3-3-3-|
A|-3-3-3-3-3-3-3-3-3-3-3-3-|-3-3-3-3-3-3-3-3-3-3-3-3-|-5-5-5-5-5-5-5-5-5-5-5-5-|-1-1-1-1-1-1-1-1-1-1-1-1-|
E|-1-1-1-1-1-1-1-1-1-1-1-1-|-------------------------|-------------------------|-------------------------|

e|-------------------------|-------------------------|-------------------------|-------------------------|
B|-------------------------|-------------------------|-------------------------|-------------------------|
G|-------------------------|-5-5-5-5-5-5-5-5-5-5-5-5-|-7-7-7-7-7-7-7-7-7-7-7-7-|-3-3-3-3-3-3-3-3-3-3-3-3-|
D|-3-3-3-3-3-3-3-3-3-3-3-3-|-5-5-5-5-5-5-5-5-5-5-5-5-|-7-7-7-7-7-7-7-7-7-7-7-7-|-3-3-3-3-3-3-3-3-3-3-3-3-|
A|-3-3-3-3-3-3-3-3-3-3-3-3-|-3-3-3-3-3-3-3-3-3-3-3-3-|-5-5-5-5-5-5-5-5-5-5-5-5-|-1-1-1-1-1-1-1-1-1-1-1-1-|
E|-1-1-1-1-1-1-1-1-1-1-1-1-|-------------------------|-------------------------|-------------------------|

e|-------------------------|-------------------------|-------------------------|-------------------------|
B|-------------------------|-------------------------|-------------------------|-------------------------|
G|-------------------------|-5-5-5-5-5-5-5-5-5-5-5-5-|-7-7-7-7-7-7-7-7-7-7-7-7-|-3-3-3-3-3-3-3-3-3-3-3-3-|
D|-3-3-3-3-3-3-3-3-3-3-3-3-|-5-5-5-5-5-5-5-5-5-5-5-5-|-7-7-7-7-7-7-7-7-7-7-7-7-|-3-3-3-3-3-3-3-3-3-3-3-3-|
A|-3-3-3-3-3-3-3-3-3-3-3-3-|-3-3-3-3-3-3-3-3-3-3-3-3-|-5-5-5-5-5-5-5-5-5-5-5-5-|-1-1-1-1-1-1-1-1-1-1-1-1-|
E|-1-1-1-1-1-1-1-1-1-1-1-1-|-------------------------|-------------------------|-------------------------|

e|-------------------------|-------------------------|-------------------------|-------------------------|
B|-------------------------|-------------------------|-------------------------|-------------------------|
G|-------------------------|-5-5-5-5-5-5-5-5-5-5-5-5-|-7-7-7-7-7-7-7-7-7-7-7-7-|-3-3-3-3-3-3-3-3-3-3-3-3-|
D|-3-3-3-3-3-3-3-3-3-3-3-3-|-5-5-5-5-5-5-5-5-5-5-5-5-|-7-7-7-7-7-7-7-7-7-7-7-7-|-3-3-3-3-3-3-3-3-3-3-3-3-|
A|-3-3-3-3-3-3-3-3-3-3-3-3-|-3-3-3-3-3-3-3-3-3-3-3-3-|-5-5-5-5-5-5-5-5-5-5-5-5-|-1-1-1-1-1-1-1-1-1-1-1-1-|
E|-1-1-1-1-1-1-1-1-1-1-1-1-|-------------------------|-------------------------|-------------------------|


[Intro]

e|---------------------------------------------------------------------------|
B|--------6-6-6-6-6-6-6-6-6-6-6-6--------------------------------------------|
G|-2-2-2--7-7-7-7-7-7-7-7-7-7-7-7--------------------------------------------|
D|-0-0-0---------------------------------------------------------------------|
A|---------------------------------------------------------------------------|
E|---------------------------------------------------------------------------|

e|---------------------------------------------------------------------------|
B|--------6-6-6-6-6-6-6-6-6-6-6-6--------------------------------------------|
G|-2-2-2--7-7-7-7-7-7-7-7-7-7-7-7--------------------------------------------|
D|-0-0-0---------------------------------------------------------------------|
A|---------------------------------------------------------------------------|
E|---------------------------------------------------------------------------|

e|---------------------------------------------------------------------------|
B|--------6-6-6-6-6-6-6-6-6-6-6-6--------------------------------------------|
G|-2-2-2--7-7-7-7-7-7-7-7-7-7-7-7--------------------------------------------|
D|-0-0-0---------------------------------------------------------------------|
A|---------------------------------------------------------------------------|
E|---------------------------------------------------------------------------|

e|---------------------------------------------------------------------------|
B|--------6-6-6-6-6-6-6-6-6-6-6-6--------------------------------------------|
G|-2-2-2--7-7-7-7-7-7-7-7-7-7-7-7--------------------------------------------|
D|-0-0-0---------------------------------------------------------------------|
A|---------------------------------------------------------------------------|
E|---------------------------------------------------------------------------|

[Bridge]

e|------------------------|---------------------------------------------------|
B|-10--10--10--10--10--10-|-11--11--11--8--8--8-------------------------------|
G|------------------------|---------------------------------------------------|
D|------------------------|---------------------------------------------------|
A|------------------------|---------------------------------------------------|
E|------------------------|---------------------------------------------------|

e|------------------------|---------------------------------------------------|
B|-10--10--10--10--10--10-|-11--11--11--8--8--8-------------------------------|
G|------------------------|---------------------------------------------------|
D|------------------------|---------------------------------------------------|
A|------------------------|---------------------------------------------------|
E|------------------------|---------------------------------------------------|

e|------------------------|---------------------------------------------------|
B|-10--10--10--10--10--10-|-11--11--11--8--8--8-------------------------------|
G|------------------------|---------------------------------------------------|
D|------------------------|---------------------------------------------------|
A|------------------------|---------------------------------------------------|
E|------------------------|---------------------------------------------------|

e|------------------------|---------------------------------------------------|
B|-10--10--10--10--10--10-|-11--11--11--8--8--8-------------------------------|
G|------------------------|---------------------------------------------------|
D|------------------------|---------------------------------------------------|
A|------------------------|---------------------------------------------------|
E|------------------------|---------------------------------------------------|

e|------------------------|---------------------------------------------------|
B|-10--10--10--10--10--10-|-11--11--11--8--8--8-------------------------------|
G|------------------------|---------------------------------------------------|
D|------------------------|---------------------------------------------------|
A|------------------------|---------------------------------------------------|
E|------------------------|---------------------------------------------------|

e|------------------------|---------------------------------------------------|
B|-10--10--10--10--10--10-|-11--11--11--8--8--8-------------------------------|
G|------------------------|---------------------------------------------------|
D|------------------------|---------------------------------------------------|
A|------------------------|---------------------------------------------------|
E|------------------------|---------------------------------------------------|

e|------------------------|---------------------------------------------------|
B|-10--10--10--10--10--10-|-11--11--11--8--8--8-------------------------------|
G|------------------------|---------------------------------------------------|
D|------------------------|---------------------------------------------------|
A|------------------------|---------------------------------------------------|
E|------------------------|---------------------------------------------------|

e|------------------------|---------------------------------------------------|
B|-10--10--10--10--10--10-|-11--11--11--8--8--8-------------------------------|
G|------------------------|---------------------------------------------------|
D|------------------------|---------------------------------------------------|
A|------------------------|---------------------------------------------------|
E|------------------------|---------------------------------------------------|

[Chorus]
(variation comes around 4th line)
e|-------------------------|-------------------------|-------------------------|-------------------------|
B|-------------------------|-------------------------|-------------------------|-------------------------|
G|-------------------------|-5-5-5-5-5-5-5-5-5-5-5-5-|-7-7-7-7-7-7-7-7-7-7-7-7-|-3-3-3-3-3-3-3-3-3-3-3-3-|
D|-3-3-3-3-3-3-3-3-3-3-3-3-|-5-5-5-5-5-5-5-5-5-5-5-5-|-7-7-7-7-7-7-7-7-7-7-7-7-|-3-3-3-3-3-3-3-3-3-3-3-3-|
A|-3-3-3-3-3-3-3-3-3-3-3-3-|-3-3-3-3-3-3-3-3-3-3-3-3-|-5-5-5-5-5-5-5-5-5-5-5-5-|-1-1-1-1-1-1-1-1-1-1-1-1-|
E|-1-1-1-1-1-1-1-1-1-1-1-1-|-------------------------|-------------------------|-------------------------|

e|-------------------------|-------------------------|-------------------------|-------------------------|
B|-------------------------|-------------------------|-------------------------|-------------------------|
G|-------------------------|-5-5-5-5-5-5-5-5-5-5-5-5-|-7-7-7-7-7-7-7-7-7-7-7-7-|-3-3-3-3-3-3-3-3-3-3-3-3-|
D|-3-3-3-3-3-3-3-3-3-3-3-3-|-5-5-5-5-5-5-5-5-5-5-5-5-|-7-7-7-7-7-7-7-7-7-7-7-7-|-3-3-3-3-3-3-3-3-3-3-3-3-|
A|-3-3-3-3-3-3-3-3-3-3-3-3-|-3-3-3-3-3-3-3-3-3-3-3-3-|-5-5-5-5-5-5-5-5-5-5-5-5-|-1-1-1-1-1-1-1-1-1-1-1-1-|
E|-1-1-1-1-1-1-1-1-1-1-1-1-|-------------------------|-------------------------|-------------------------|

e|-------------------------|-------------------------|-------------------------|-------------------------|
B|-------------------------|-------------------------|-------------------------|-------------------------|
G|-------------------------|-5-5-5-5-5-5-5-5-5-5-5-5-|-7-7-7-7-7-7-7-7-7-7-7-7-|-3-3-3-3-3-3-3-3-3-3-3-3-|
D|-3-3-3-3-3-3-3-3-3-3-3-3-|-5-5-5-5-5-5-5-5-5-5-5-5-|-7-7-7-7-7-7-7-7-7-7-7-7-|-3-3-3-3-3-3-3-3-3-3-3-3-|
A|-3-3-3-3-3-3-3-3-3-3-3-3-|-3-3-3-3-3-3-3-3-3-3-3-3-|-5-5-5-5-5-5-5-5-5-5-5-5-|-1-1-1-1-1-1-1-1-1-1-1-1-|
E|-1-1-1-1-1-1-1-1-1-1-1-1-|-------------------------|-------------------------|-------------------------|

e|-------------------------|-------------------------|-------------------------|-------------------------|
B|-------------------------|-------------------------|-------------------------|-------------------------|
G|-------------------------|-5-5-5-5-5-5-5-5-5-5-5-5-|-7-7-7-7-7-7-7-7-7-7-7-7-|-3-3-3-3-3-3-3-3-3-3-3-3-|
D|-3-3-3-3-3-3-3-3-3-3-3-3-|-5-5-5-5-5-5-5-5-5-5-5-5-|-7-7-7-7-7-7-7-7-7-7-7-7-|-3-3-3-3-3-3-3-3-3-3-3-3-|
A|-3-3-3-3-3-3-3-3-3-3-3-3-|-3-3-3-3-3-3-3-3-3-3-3-3-|-5-5-5-5-5-5-5-5-5-5-5-5-|-1-1-1-1-1-1-1-1-1-1-1-1-|
E|-1-1-1-1-1-1-1-1-1-1-1-1-|-------------------------|-------------------------|-------------------------|

e|-------------------------|-------------------------|-------------------------|-------------------------|
B|-------------------------|-------------------------|-------------------------|-------------------------|
G|-------------------------|-5-5-5-5-5-5-5-5-5-5-5-5-|-7-7-7-7-7-7-7-7-7-7-7-7-|-3-3-3-3-3-3-3-3-3-3-3-3-|
D|-3-3-3-3-3-3-3-3-3-3-3-3-|-5-5-5-5-5-5-5-5-5-5-5-5-|-7-7-7-7-7-7-7-7-7-7-7-7-|-3-3-3-3-3-3-3-3-3-3-3-3-|
A|-3-3-3-3-3-3-3-3-3-3-3-3-|-3-3-3-3-3-3-3-3-3-3-3-3-|-5-5-5-5-5-5-5-5-5-5-5-5-|-1-1-1-1-1-1-1-1-1-1-1-1-|
E|-1-1-1-1-1-1-1-1-1-1-1-1-|-------------------------|-------------------------|-------------------------|

e|-------------------------|-------------------------|-------------------------|-------------------------|
B|-------------------------|-------------------------|-------------------------|-------------------------|
G|-------------------------|-5-5-5-5-5-5-5-5-5-5-5-5-|-7-7-7-7-7-7-7-7-7-7-7-7-|-3-3-3-3-3-3-3-3-3-3-3-3-|
D|-3-3-3-3-3-3-3-3-3-3-3-3-|-5-5-5-5-5-5-5-5-5-5-5-5-|-7-7-7-7-7-7-7-7-7-7-7-7-|-3-3-3-3-3-3-3-3-3-3-3-3-|
A|-3-3-3-3-3-3-3-3-3-3-3-3-|-3-3-3-3-3-3-3-3-3-3-3-3-|-5-5-5-5-5-5-5-5-5-5-5-5-|-1-1-1-1-1-1-1-1-1-1-1-1-|
E|-1-1-1-1-1-1-1-1-1-1-1-1-|-------------------------|-------------------------|-------------------------|

e|-------------------------|-------------------------|-------------------------|-------------------------|
B|-------------------------|-------------------------|-------------------------|-------------------------|
G|-------------------------|-5-5-5-5-5-5-5-5-5-5-5-5-|-7-7-7-7-7-7-7-7-7-7-7-7-|-3-3-3-3-3-3-3-3-3-3-3-3-|
D|-3-3-3-3-3-3-3-3-3-3-3-3-|-5-5-5-5-5-5-5-5-5-5-5-5-|-7-7-7-7-7-7-7-7-7-7-7-7-|-3-3-3-3-3-3-3-3-3-3-3-3-|
A|-3-3-3-3-3-3-3-3-3-3-3-3-|-3-3-3-3-3-3-3-3-3-3-3-3-|-5-5-5-5-5-5-5-5-5-5-5-5-|-1-1-1-1-1-1-1-1-1-1-1-1-|
E|-1-1-1-1-1-1-1-1-1-1-1-1-|-------------------------|-------------------------|-------------------------|

e|-------------------------|-------------------------|-------------------------|-------------------------|
B|-------------------------|-------------------------|-------------------------|-------------------------|
G|-------------------------|-5-5-5-5-5-5-5-5-5-5-5-5-|-7-7-7-7-7-7-7-7-7-7-7-7-|-3-3-3-3-3-3-3-3-3-3-3-3-|
D|-3-3-3-3-3-3-3-3-3-3-3-3-|-5-5-5-5-5-5-5-5-5-5-5-5-|-7-7-7-7-7-7-7-7-7-7-7-7-|-3-3-3-3-3-3-3-3-3-3-3-3-|
A|-3-3-3-3-3-3-3-3-3-3-3-3-|-3-3-3-3-3-3-3-3-3-3-3-3-|-5-5-5-5-5-5-5-5-5-5-5-5-|-1-1-1-1-1-1-1-1-1-1-1-1-|
E|-1-1-1-1-1-1-1-1-1-1-1-1-|-------------------------|-------------------------|-------------------------|

[Intro]

e|---------------------------------------------------------------------------|
B|--------6-6-6-6-6-6-6-6-6-6-6-6--------------------------------------------|
G|-2-2-2--7-7-7-7-7-7-7-7-7-7-7-7--------------------------------------------|
D|-0-0-0---------------------------------------------------------------------|
A|---------------------------------------------------------------------------|
E|---------------------------------------------------------------------------|

e|---------------------------------------------------------------------------|
B|--------6-6-6-6-6-6-6-6-6-6-6-6--------------------------------------------|
G|-2-2-2--7-7-7-7-7-7-7-7-7-7-7-7--------------------------------------------|
D|-0-0-0---------------------------------------------------------------------|
A|---------------------------------------------------------------------------|
E|---------------------------------------------------------------------------|

e|---------------------------------------------------------------------------|
B|--------6-6-6-6-6-6-6-6-6-6-6-6--------------------------------------------|
G|-2-2-2--7-7-7-7-7-7-7-7-7-7-7-7--------------------------------------------|
D|-0-0-0---------------------------------------------------------------------|
A|---------------------------------------------------------------------------|
E|---------------------------------------------------------------------------|

e|---------------------------------------------------------------------------|
B|--------6-6-6-6-6-6-6-6-6-6-6-6--------------------------------------------|
G|-2-2-2--7-7-7-7-7-7-7-7-7-7-7-7--------------------------------------------|
D|-0-0-0---------------------------------------------------------------------|
A|---------------------------------------------------------------------------|
E|---------------------------------------------------------------------------|


************************************

Order of Song
-[Intro]
-[Verse] 
-[Chorus] 
-[Intro] 
-[Verse] 
-[Chorus] 
-[Intro] 
-[Bridge] 
-[Chorus]
-[Intro]

************************************

            
            
Suggest correction
Creating personal tab
Creating personal tab
You can edit any tab online and save it as your Personal.

You can edit, replace or remove any tab part or add personal notes – all changes will be seen only by you.

Personal tabs can be accessed anytime from any device, even offline.
Learn more »
comments
print report bad tab
guest
You may want to rate the tab now too:
select rating
Wanna post a correction for this tab? Suggest correction