Oops, an error
Loading. Please wait.

A Letter To Elise Bass Tab

version 1
version 1

Whole song

Interactive

6,314 views 15 this week
no commentswrite comment
1 2 3 4 5
excellent!
x 4
add to favorites
launch autoscroll
font size
0
reset
guitar tuner
Tab Pro tools
  • play this tab
  • loop segment
  • change instrument
  • show fretboard
  • metronome
×
Best way to learn
"A Letter To Elise"
Autoscroll
slow
fast
+/-
esc
set tempo
stop
Contributor
Blink 182 - A Letter To Elise (Cure Cover)


Intro  (might stay on root parts a little longer)
G|----------------|-------------22-|-------------22-|-------------|
D|-------------44-|-22222222-22----|-44444444-44----|-00000000-00-|
A|-00000000-00----|----------------|----------------|-------------|
E|----------------|----------------|----------------|-------------|

Verse
G|----------------|----------------|----------------|----------------|
D|----------------|----------------|----------------|----------------|
A|-0000-0000-0000-|----------------|----------------|-5555-5555-5555-|
E|----------------|-0000-0000-0000-|-2222-2222-2222-|----------------|


Verse 2 (can speed up with song)
G|----------------|----------------|----------------|----------------|
D|-7777-7777-7777-|----------------|----------------|----------------|
A|----------------|-7777-7777-7777-|-9999-9999-9999-|-5555-5555-5555-|
E|----------------|----------------|----------------|----------------|

Solo
G|-------|------|------|-------|
D|-2----2|4----4|2----2|4----4-|
A|-------|------|------|-------|
E|-------|------|------|-------|

G|--------------|--------------|--------------|-------------------|
D|-222222222222-|-444444444444-|-222222222222-|-------------------|
A|--------------|--------------|--------------|-44444444-22222222-|
E|--------------|--------------|--------------|-------------------|

G|-------------------------|
D|-------------------------|   on this part you can either just let them
A|-0~----7~----9~----5~----|  ring or you can throw in some bends
E|-------------------------|       (on the middle two notes)

G|----------------|-------------22-|-------------22-|-------------|
D|-------------44-|-22222222-22----|-44444444-44----|-00000000-00-|
A|-00000000-00----|----------------|----------------|-------------|
E|----------------|----------------|----------------|-------------|

Outro=Verse


Intro  x2
Verse  x2
Intro  x1
Verse  x4
Verse2 x4
Solo
Outro  -  end on a D
comments
print report bad tab
I want to post or [tab]
guest
You may want to rate the tab now too:
select rating
Please do not post tabs as comments. Select "correction" instead!