Oops, an error
Loading. Please wait.

Adams Song Tab

1,049,916 views 1,671 this week
54 commentsread comments
1 2 3 4 5
accurate
x 91
add to favorites
launch autoscroll
font size
0
reset
how to read this tab
guitar tuner
Tab Pro tools
  • play this tab
  • loop segment
  • change instrument
  • show fretboard
  • metronome
×
Best way to learn
"Adams Song"
Autoscroll
slow
fast
+/-
esc
set tempo
stop
Tuning
D G C F A D
Artist: Blink-182
Song: Adam’s song
Album: Enema of the State
Tuning: 1 step down


[Intro]

d|----------------------------------------------------------------------------------------------------|
A|----------------------------------------------------------------------------------------------------|
F|----------------------------------------------------------------------------------------------------|
C|----4---0----4---0------4----0--------4----0-----4----0--------4----0----------4---0--------4-----0-| x2
G|-2---------2--------0--------------0----------------------------------------------------------------|
D|-----------------------------------------------3------------3--------------0--------------3---------|


[Verse]

PM----------------------------------------------------------------------------|
d|-----------------------------------------------------------------------------|
A|-----------------------------------------------------------------------------|
F|-----------------------------------------------------------------------------|  x4 
C|-7-7-7-7-7-7-7-7------------------------4-4-4-4-4-4-4-4----------------------|
G|-5-5-5-5-5-5-5-5----5-5-5-5-5-5-5-5-----2-2-2-2-2-2-2-2----5-5-5-5-5-5-5-5---|
D|--------------------3-3-3-3-3-3-3-3------------------------3-3-3-3-3-3-3-3---|


[Pre-Chorus]    

d|----------------------------------------------------------------------------------------------------|
A|----------------------------------------------------------------------------------------------------|
F|-----------0-----------0----------0-----------0-----------------------------------------------------|
C|------7------------7----------9-----------9-----------4---0-------4---0--------4----0-------4---0---| x2
G|-5------------5----------7-----------7-----------2------------2-------------------------------------|
D|----------------------------------------------------------------------------3------------3----------|


[Chorus Pt. 1]

(“I never conquered rarely came sixteen…….”)
d|---------------------------------------------------------------------------|
A|---------------------------------------------------------------------------|
F|-7-7-7-7-7-7-7-7-----9-9-9-9-9-9-9-9---------------------------------------|
C|-x-x-x-x-x-x-x-x-----x-x-x-x-x-x-x-x----9-9-9-9-9-9-9-9----5-5-5-5-5-5-5-5-|
G|-5-5-5-5-5-5-5-5-----7-7-7-7-7-7-7-7----x-x-x-x-x-x-x-x----x-x-x-x-x-x-x-x-|
D|----------------------------------------7-7-7-7-7-7-7-7----3-3-3-3-3-3-3-3-|

d|----------------------------------------------------------------------------------------------------------|
A|----------------------------------------------------------------------------------------------------------|
F|-11-11-11-11-11-11-11-11--12-12-12-12-12-12-12-12-----11-11-11-11-11-11-11-11-----12-12-12-12-12-12-12-12-|
C|-x--x--x--x--x--x--x--x----x--x--x--x--x--x--x--x------x--x--x--x--x--x--x--x------x--x--x--x--x--x--x--x-|
G|-9--9--9--9--9--9--9--9---10-10-10-10-10-10-10-10-----9--9--9--9--9--9--9--9------10-10-10-10-10-10-10-10-|
D|----------------------------------------------------------------------------------------------------------|


[Chorus Pt. 2]

(“The world was wide, to late to try……”) 
d|------------------------------------------------------------------------------|
A|------------------------------------------------------------------------------|
F|-----7-7-7-7-7-7-7-7----9-9-9-9-9-9-9-9---------------------------------------|
C|-----7-7-7-7-7-7-7-7----9-9-9-9-9-9-9-9----9-9-9-9-9-9-9-9----5-5-5-5-5-5-5-5-|
G|-----5-5-5-5-5-5-5-5----7-7-7-7-7-7-7-7----9-9-9-9-9-9-9-9----5-5-5-5-5-5-5-5-|
D|-------------------------------------------7-7-7-7-7-7-7-7----3-3-3-3-3-3-3-3-|


[Instrumental]

d|------------------------------------------------------------------------------------------------------|
A|------------------------------------------------------------------------------------------------------|
F|------------------------------------------------------------------------------------------------------|
C|----4---0----4---0------4----0--------4----0-----4----0--------4----0----------4---0--------4-----0---|  x2
G|-2---------2--------0--------------0------------------------------------------------------------------|
D|-----------------------------------------------3------------3--------------0--------------3-----------|


[Verse]

PM----------------------------------------------------------------------------|
d|-----------------------------------------------------------------------------|
A|-----------------------------------------------------------------------------|
F|-----------------------------------------------------------------------------|  x4 
C|-7-7-7-7-7-7-7-7------------------------4-4-4-4-4-4-4-4----------------------|
G|-5-5-5-5-5-5-5-5----5-5-5-5-5-5-5-5-----2-2-2-2-2-2-2-2----5-5-5-5-5-5-5-5---|
D|--------------------3-3-3-3-3-3-3-3------------------------3-3-3-3-3-3-3-3---|


[Pre-Chorus]    

d|----------------------------------------------------------------------------------------------------|
A|----------------------------------------------------------------------------------------------------|
F|-----------0-----------0----------0-----------0-----------------------------------------------------|
C|------7------------7----------9-----------9-----------4---0-------4---0--------4----0-------4---0---| x2
G|-5------------5----------7-----------7-----------2------------2-------------------------------------|
D|----------------------------------------------------------------------------3------------3----------|


[Chorus Pt. 1]

(“I never conquered rarely came sixteen…….”)
d|---------------------------------------------------------------------------|
A|---------------------------------------------------------------------------|
F|-7-7-7-7-7-7-7-7-----9-9-9-9-9-9-9-9---------------------------------------|
C|-x-x-x-x-x-x-x-x-----x-x-x-x-x-x-x-x----9-9-9-9-9-9-9-9----5-5-5-5-5-5-5-5-|
G|-5-5-5-5-5-5-5-5-----7-7-7-7-7-7-7-7----x-x-x-x-x-x-x-x----x-x-x-x-x-x-x-x-|
D|----------------------------------------7-7-7-7-7-7-7-7----3-3-3-3-3-3-3-3-|

d|----------------------------------------------------------------------------------------------------------|
A|----------------------------------------------------------------------------------------------------------|
F|-11-11-11-11-11-11-11-11--12-12-12-12-12-12-12-12-----11-11-11-11-11-11-11-11-----12-12-12-12-12-12-12-12-|
C|-x--x--x--x--x--x--x--x----x--x--x--x--x--x--x--x------x--x--x--x--x--x--x--x------x--x--x--x--x--x--x--x-|
G|-9--9--9--9--9--9--9--9---10-10-10-10-10-10-10-10-----9--9--9--9--9--9--9--9------10-10-10-10-10-10-10-10-|
D|----------------------------------------------------------------------------------------------------------|


[Chorus Pt. 2]

(“The world was wide, to late to try……”) 
d|------------------------------------------------------------------------------|
A|------------------------------------------------------------------------------|
F|-----7-7-7-7-7-7-7-7----9-9-9-9-9-9-9-9---------------------------------------|
C|-----7-7-7-7-7-7-7-7----9-9-9-9-9-9-9-9----9-9-9-9-9-9-9-9----5-5-5-5-5-5-5-5-|
G|-----5-5-5-5-5-5-5-5----7-7-7-7-7-7-7-7----9-9-9-9-9-9-9-9----5-5-5-5-5-5-5-5-|
D|-------------------------------------------7-7-7-7-7-7-7-7----3-3-3-3-3-3-3-3-|


**********************
|x     Dead note
**********************
comments
print report bad tab
54 comments total. Showing first comments. show 2 bad comments
-1 reply
harley_smith wrote on November 12 2005, 08:08 am

ps its 3:43 where i am!

I want to post or [tab]
guest
You may want to rate the tab now too:
select rating
Please do not post tabs as comments. Select "correction" instead!