Oops, an error
Loading. Please wait.
20,946 views 12 this week
2 commentsread comments
1 2 3 4 5
x 7
add to favorites
×
Save as Personal and add changes to this tab that will be seen only by you. Learn more ›
×
You can save this tab as Personal to edit and correct it or add notes. All changes will be seen only by you. Learn more »
launch autoscroll
font size
0
reset
how to read this tab
guitar tuner
edit
Autoscroll
slow
fast
+/-
esc
set tempo
stop
Blink 182 | Adam's Song.
Tabbed by Steve Bae | wolfhunter@hotmail.com.
  
This can be played at standard tuning.

*Note*: Listen to the song to get the timing.

Intro (Clean) Repeat 2 times
1|---------------------------------------------------------------------------
2|---------------------------------------------------------------------------
3|---------------------------------------------------------------------------
4|----4--0-----4--0-----4--0------4--0------4--0-----4--0-----4--0-----4--0--
5|--2--------2--------0---------0--------------------------------------------
6|----------------------------------------3--------3--------0--------3-------

Verse(PM)
1|---------------------------------------------| 
2|---------------------------------------------|
3|---------------------------------------------|Repeat 4 times
4|--77777777------------44444444---------------|
5|--55555555--55555555--22222222--55555555-----|
6|------------33333333------------33333333-----|

I never thought I'd die alone,
I laugh the loudest who'd have known?
I traced the cord back to the wall,
No wonder it was never plugged in at all,
I took my time, I hurried up,
The choice was mine I didn't think enough,
I'm too depressed to go on,
You'll be sorry when I'm gone,

Bridge(Clean) Repeat 2 Times
1|----------------------------------------------------------|
2|----------------------------------------------------------|
3|------0------0-----0-----0--------------------------------|
4|----7------7-----9-----9-----4--0----4--0---4--0---4--0---|
5|--5------5-----7-----7-----2-------2----------------------|
6|------------------------------------------3------3--------|

Pre-Chorus
1|-----------------------------------------|
2|-----------------------------------------|
3|-----------------------------------------|
4|--77777777--99999999--4444444------------|
5|--55555555--77777777--2222222--55555555--|
6|-------------------------------33333333--|

Pre-Chorus part 2 
1|-----------------------------------------|
2|-----------------------------------------|
3|--77777777--99999999--4444444------------|
4|--77777777--99999999--4444444--55555555--|
5|--55555555--77777777--2222222--55555555--|
6|-------------------------------33333333--|

I never conquered, rarely came,
16 just held such better days,
Days when I still felt alive,
We couldn't wait to get outside,

Play Chorus Same As Pre-Chorus Except with Heavy Distortion

The world was wide, too late to try,
The tour was over, we'd survived,
I couldn't wait till I got home,
To pass the time in my room alone,

Go back to intro and on from there. 
Replace the first verse with the second.
After playing the whole thing a second time there is a solo
Note: I wasn't able to figure out how to play the guitar on the solo.

Then play the chorus then end on what
I think is
1|---
2|---
3|-5-
4|-5-
5|-3-
6|---

Additional Lyrics
I never thought, I'd die alone,
Another six months I'll be unknown,
Give all my things to all my friends,
You'll never step foot in my room again,
You'll close it off, board it up,
Remember the time that I spilled the cup,
Of apple juice in the hall,
Please tell mom this is not her fault,

Final Chorus:
I never conquered, rarely came,
But tommorrow holds such better days,
Days when I can still feel alive,
When I can't wait to get outside,
The world is wide, the time goes by,
The tour is over, I've survived,
I can't wait till I get home,
To pass the time in my room alone. 
:: Ultimate Guitar Archive :: 
http://www.ultimate-guitar.com 


            
            
Suggest correction
Creating personal tab
Creating personal tab
You can edit any tab online and save it as your Personal.

You can edit, replace or remove any tab part or add personal notes – all changes will be seen only by you.

Personal tabs can be accessed anytime from any device, even offline.
Learn more »
comments
print report bad tab
2 comments total.
-2 reply
asthenia_rules 10 Aug 22, 2005 08:00 PM

The verse is

E------------------
B------------------
G-----------------
D-4-(x8)------------
A-5------5-(x8)-9-(x8)---- x4 otherwise.... good tab
E--------3------7----

-2 reply
billytalent94 41 Dec 29, 2006 03:15 PM

u didnt show the tuning! (no comment) on rest

guest
Wanna post a correction for this tab? Suggest correction