Oops, an error
Loading. Please wait.
8,280 views 27 this week
5 commentsread comments
1 2 3 4 5
x 7
add to favorites
×
Save as Personal and add changes to this tab that will be seen only by you. Learn more ›
×
You can save this tab as Personal to edit and correct it or add notes. All changes will be seen only by you. Learn more »
launch autoscroll
font size
0
reset
how to read this tab
guitar tuner
edit
Autoscroll
slow
fast
+/-
esc
set tempo
stop
Blink182, Adam's song(live version).
Tabbed by dave, wain81@hotmail.com.
  
This is the version off The Mark tom & Travis show. Its played different live for some reason.
Intro
e----------------------------------------------------I
b----------------------------------------------------I
g----------------------------------------------------I
d-----------------------1-------1-------1------1-----I
a-----6---------6---------2-------2-------2------2---I
E--4----7----4----7---2-------2-------0------0-------I

e----------------------------------------------------I
b----------------------------------------------------I
g----------------------------------------------------I
d-----1-------1--------------------------------------I
a-------2-------2---------repeatX4-------------------I
E--2--------0----------------------------------------I

Verse
e----------------------------------------------------I
b----------------------------------------------------I
g----------------------------------------------------I
d-44444444-------------------------------------------I
a-22222222--22222222--66666666--22222222-------------I
E-----------00000000--44444444--00000000-------------I
----pm--------pm--------pm---------pm-----------------

Interlude
e----------------------------------------------------I
b----------------------------------------------------I
g----------------------------------------------------I
d----4-2----4-2----6------6-------------------1---1--I
a--2------2------4---7--4---7----6------6------2---2-I
E------------------------------4---7--4---7--2---2---I

Chorus/Verse 2
e----------------------------------------------------I
b----------------------------------------------------I
g----------------------------------------------------I
d-44444444--66666666---------------------------------I
a-22222222--44444444-66666666-22222222---------------I
E--------------------44444444-00000000---------------I

that's about it. 

 
:: Ultimate Guitar Archive :: 
http://www.ultimate-guitar.com 

Suggest correction
Creating personal tab
Creating personal tab
You can edit any tab online and save it as your Personal.

You can edit, replace or remove any tab part or add personal notes – all changes will be seen only by you.

Personal tabs can be accessed anytime from any device, even offline.
Learn more »
comments
print report bad tab
5 comments total. Showing first comments.
0 reply
jimmy hendrix 2 10 Feb 16, 2006 03:21 AM

great tab but the intro is a little off

e----------------------------------------------------I
b----------------------------------------------------I
g----------------------------------------------------I
d-----------------------1-------1-------1------1-----I
a-----6---------6---------2-------2-------2------2---I
E--4----7----4----7---2-------2-------0------0-------I
SHOULD BE....
e----------------------------------------------------I
b----------------------------------------------------I
g----------------------------------------------------I
d-----1--------1---------1-------1-------1------1----I
a-------2--------2--------2-------2-------2------2---I
E--4--------4-------2-------2-------0------0---------I
kk but great tab

+1 reply
cospet 30 Jan 05, 2007 01:44 AM

i think its because the studio version needs d-tuning
so they play it like this in order to not tune their guitar

0 reply
guitarava87 10 Jul 09, 2007 12:49 PM

it sounds perfect to me. thanks for the tab uh who ever made it.

guest
Wanna post a correction for this tab? Suggest correction