Oops, an error
Loading. Please wait.
34,151 views 27 this week
3 commentsread comments
1 2 3 4 5
x 8
add to favorites
×
Save as Personal and add changes to this tab that will be seen only by you. Learn more ›
×
You can save this tab as Personal to edit and correct it or add notes. All changes will be seen only by you. Learn more »
launch autoscroll
font size
0
reset
how to read this tab
guitar tuner
edit
Autoscroll
slow
fast
+/-
esc
set tempo
stop
Author
Unregistered
Tuning: very very important!!!!  Tune all your strings down 1 and a half steps.
Your guitar should therefore look like so (LOW 2 HIGH)

C# ; F# ; B# ; E# ; G# ; C#

Remember you are tuning down!!

[Intro] X2

C#|----------------------------------------------------------|
G#|----------------------------------------------------------|
E#|----------------------------------------------------------|
B#|----4-0---4-0---4-0----4-0-----4-0----4-0---4-0---4-0-----|
F#|--2-----2-----0------0------------------------------------|
C#|----------------------------3-------3-----0-----3---------|


[Verse] X4

C#|-----------------------------------------------------------|
G#|-----------------------------------------------------------|
E#|-----------------------------------------------------------|
B#|---44444444------------------------------------------------|
F#|---55555555-55555555-77777777-55555555---------------------|
C#|------------33333333-55555555-33333333---------------------|


[Bridge] X2

C#|--------------------------------------------------------------|
G#|--------------------------------------------------------------|
E#|--------0------0------0-----0---------------------------------|
B#|-----7------7------9-----9------4--0----4-0----4-0----4-0-----|
F#|--5------5------7-----7------2--------2-----------------------|
C#|---------------------------------------------3------3---------|


[Chorus]

C#|--------------------------------------------|
G#|--------------------------------------------|
E#|---77777777-99999999-44444444---------------|
B#|---xxxxxxxx-xxxxxxxx-xxxxxxxx--55555555-----|
F#|---55555555-77777777-22222222--xxxxxxxx-----|
C#|-------------------------------33333333-----|

C#|-------------------------------------------------------------------------|
G#|-------------------------------------------------------------------------|
E#|--99999999---1212121212121212---11-11-11-11-11-11-11-11------------------|
B#|--xxxxxxxx---xxxxxxxxxxxxxxxx---xx-xx-xx-xx-xx-xx-xx-xx------------------|
F#|--77777777---1010101010101010----9--9--9--9--9--9--9--9------------------|
C#|-------------------------------------------------------------------------|

C#|---------------------------|
G#|---------------------------|
E#|--12-12-12-12-12-12-12-12--|
B#|--xx-xx-xx-xx-xx-xx-xx-xx--|
F#|--10-10-10-10-10-10-10-10--|
C#|---------------------------|

C#|--------------------------------------------|
G#|--------------------------------------------|
E#|---77777777-99999999-44444444---------------|
B#|---xxxxxxxx-xxxxxxxx-xxxxxxxx--55555555-----|
F#|---55555555-77777777-22222222--xxxxxxxx-----|
C#|-------------------------------33333333-----|

[Intro]X2
[Verse]X4
[Bridge]X2
[Chorus]
[Interlude]

[Re-entry]

SORRY LOST COUNT ON HOW MANY TIMES
TO PLAY THIS.  BUT YOU'LL FEEL IT

C#|----------------------------|
G#|----------------------------|
E#|--------7-----7----7---7----|
B#|-----0-----0----0---0-------|
F#|--5------5----5---5---------|
C#|----------------------------|


PLAY

C#|------|
G#|------|
E#|----7-|
B#|----5-|
F#|----5-|
C#|------|

A COUPLE OF TIMES AND LAUNCH INTO A CHOPRUS OF ONLY

C#|------------------------------------------------------------|
G#|------------------------------------------------------------|
E#|---77777777-99999999-44444444-------------------------------|
B#|---xxxxxxxx-xxxxxxxx-xxxxxxxx--55555555---------------------|
F#|---55555555-77777777-22222222--xxxxxxxx---------------------|
C#|---------------------- --------33333333---------------------|

AND PLAY 4 TIMES AND END OFF WITH A

C#|------|
G#|------|
E#|----7-|
B#|----5-|
F#|----5-|
C#|------|



************************************

| x  Dead note 

************************************

            
            
Suggest correction
Creating personal tab
Creating personal tab
You can edit any tab online and save it as your Personal.

You can edit, replace or remove any tab part or add personal notes – all changes will be seen only by you.

Personal tabs can be accessed anytime from any device, even offline.
Learn more »
comments
print report bad tab
3 comments total.
0 reply
jackb. 20 Jun 02, 2006 12:52 PM

cool tab dude

+1 reply
U B the band 3,023 Jun 22, 2006 01:16 PM

this is a good tab but the tuning is low to high DGCFAD it's standard tuned one full step down. try it. PMT

0 reply
jane's_diary 10 Jun 22, 2006 01:39 PM

Yeah its DGCFAD

guest
Wanna post a correction for this tab? Suggest correction