Oops, an error
Loading. Please wait.

Adams Song Chords

version 4
version 4

Whole song

  • ver 4 new
    This Version contains the strumming rythem, capo, tuning and the correct tuning.

Video

58 views 58 this week
1 commentread comment
1 2 3 4 5
x 3
add to favorites
launch autoscroll
font size
0
reset
transpose
0
reset
display chords
guitar tuner
Autoscroll
slow
fast
+/-
esc
set tempo
stop
Help us to improve Ultimate-Guitar.com Take our survey!
×
Author
Difficulty
Tuning
Capo
novice
D G C F A D
3rd fret
About this tab version
This Version contains the strumming rythem, capo, tuning and the correct tuning. Was this info helpful? Yes No
Strumming
whole song 100 bpm
1
&
2
&
3
&
4
&
5
&
6
&
Play
Is this strumming pattern correct? Yes No
[Intro]

d|------------------------------------------------------------------------------------------------------|
A|------------------------------------------------------------------------------------------------------|
F|------------------------------------------------------------------------------------------------------|
C|----4---0----4---0------4----0--------4----0-----4----0--------4----0----------4---0--------4-----0---| 
G|-2---------2--------0--------------0------------------------------------------------------------------|
D|-----------------------------------------------3------------3--------------0--------------0-----------|

d|------------------------------------------------------------------------------------------------------|
A|------------------------------------------------------------------------------------------------------|
F|------------------------------------------------------------------------------------------------------|
C|----4---0----4---0------4----0--------4----0-----4----0--------4----0----------4---0--------4-----(0)-| 
G|-2---------2--------0--------------0------------------------------------------------------------------|
D|-----------------------------------------------3------------3--------------0--------------0-----------|


[Verse 1]

C       F               Am
I never thought I'd die alone
                F                  C
I laughed the loudest who'd have known?
              F              Am
I trace the cord back to the wall
                  F                          C
No wonder it was never plugged in at all
           F            Am
I took my time, I hurried up
                 F                  C
The choice was mine I didn't think enough
          F            Am
I'm too depressed to go on
           F               C
You'll be sorry when I'm gone


[Chorus]

C          Dm              Am
I never conquered, rarely came
         F                 C
16 just held such better days
          Dm            Am
Days when I still felt alive
            F               C
We couldn't wait to get outside
                Dm             Am
The world was wide, too late to try
             F               C
The tour was over we'd survived
             Dm             Am
I couldn't wait till I got home
              F                C
To pass the time in my room alone


[Verse 2]

C         F               Am
I never thought I'd die alone
              F                 C
Another six months I'll be unknown
              F               Am
Give all my things to all my friends
                   F               C
You'll never step foot in my room again
                F             Am
You'll close it off, board it up
               F                     C
Remember the time that I spilled the cup
          F            Am
Of apple juice in the hall
             F                   C
Please tell mom this is not her fault


[Chorus]

C         Dm              Am
I never conquered, rarely came
         F                 C
16 just held such better days
           Dm              Am
Days when I still felt alive
            F               C
We couldn't wait to get outside
                F                Am
The world was wide, too late to try
             F               C
The tour was over we'd survived
             F               Am
I couldn't wait till I got home
              F                C
To pass the time in my room alone


[Chorus]

C          Dm              Am
I never conquered, rarely came
             F              C
tomorrow holds such better days
             Dm              Am
Days when I can still feel alive
                 F             C
When I couldn't wait to get outside
                Dm              Am
The world is wide, the time goes by
              F              C
The tour is over, I've survived
         Dm              Am
I can't wait till I get home
              F               C
To pass the time in my room alone

Suggest correction
Give kudos to tab author, rate the tab!
1 2 3 4 5
comments
print report bad tab
1 comment total.
0 reply
punkrockxgirl 10 2 days ago

Cool, thanks! It sounds great and i can play and sing at the same time, yay!

guest
You may want to rate the tab now too:
select rating
Wanna post a correction for this tab? Suggest correction