Oops, an error
Loading. Please wait.

Alone Tab

version 1
version 1

Intro

Whole song

Interactive

2,303 views 1 this week
2 commentsread comments
1 2 3 4 5
x 6
add to favorites
launch autoscroll
font size
0
reset
how to read this tab
guitar tuner
Autoscroll
slow
fast
+/-
esc
set tempo
stop
Author
Artist:Blink 182

Song: Alone

Album: Fly swatter

Tabbed By: Dorteater


This is how the begining goes i couldn't realy hear any of the chords.

e)---------------------------------------|
b)---------------------------------------|
g)---------------------------------------|
D)---3-3h-2-0-----5-3-2------------------|
A)-0----------3--------------------------|
E)---------------------------------------|

e)----------------------------------------|
b)----------------------------------------|
g)----------------------------------------|
D)---3-3h-2-0-----5-3-2-------------------|
A)-0----------3---------------------------|  x2
E)----------------------------------------|

h=hammer
Suggest correction
comments
print report bad tab
2 comments total.
+1 reply
Macbeth182 150 Jul 22, 2004 08:00 PM

that would not be a hammer it would be a pull

E|-------------------|
B|-------------------|
G|-------------------|
D|---3-3p2-0---5-3-2-|
A|-0---------3-------|
E|-------------------|

0 reply
MIKEYSHIP 10 Jul 02, 2013 03:57 AM

E|-------------------|
B|-------------------|
G|-------------------|
D|---3-3p2p0---5-3-2-|
A|-0---------3-------|
E|-------------------|

guest
You may want to rate the tab now too:
select rating
Wanna post a correction for this tab? Suggest correction