Oops, an error
Loading. Please wait.
We have an official Always tab made by UG professional guitarists. Check out the tab »
×

Always tab

version 1
version 1

Whole song

Video

  • High quality, easy to follow video lesson.
68,144 views 36 this week
9 commentsread comments
1 2 3 4 5
x 22
add to favorites
×
Save as Personal and add changes to this tab that will be seen only by you. Learn more ›
×
You can save this tab as Personal to edit and correct it or add notes. All changes will be seen only by you. Learn more »
launch autoscroll
font size
0
reset
how to read this tab
guitar tuner
edit
Autoscroll
slow
fast
+/-
esc
set tempo
stop
Author
(Guitar kicks in at 0:34)
(Palm muted, strumming not shown)
e|---------------------------|
B|---------------------------|
G|--4------3-----------------|
D|--4-x8---4-x8---6----------|
A|--2------1------6-x12------|
E|----------------4----------|
 .......................

[Pre-Chorus/Post-Chorus]
e|----------------------------------------|
B|----------4-------4------------4------4-|
G|-----4-------4------------4------4------|
D|----------------------------------------|
A|-2-2---2-------2------4-4---4-------4---|
E|----------------------------------------|

e|------------------------------------------|
B|-----------4--------4---------------------|
G|-----4--------4---------------4---------4-|
D|------------------------------------------|
A|------------------------------------------|
E|-4-4----4--------4-------0-0-----0-0-0----|

[Chorus]
e|-----------------------------------------|
B|-----------------------------------------|
G|-4------8--------------------------------|
D|-4-x8---x-x8----6-------2----------------|
A|-2------6-------6-x8----2-x8-------------|
E|----------------4-------0----------------|

[Verse 2]
(Tom uses an some effect here)
e|-------------------------------|
B|-------------------------------|
G|-------------------------------|
D|-------------------------------|
A|-------------------------------|
E|-7--7--4--6--6--2--4--4--2--4--|

The next two parts are the interlude
(2 guitars)

[Interlude/Bridge]
(1st Guitar - repeat this over and over)
e|-------------------------------------------------|
B|-4-----4-----4-----4---5--4-----4-----4-----4--5-|
G|----4-----4-----4------------4-----4-----4-------|
D|-------------------------------------------------|
A|-------------------------------------------------|
E|-------------------------------------------------|

e|-------------------------------------------------|
B|-4-----4-----4-----4--5--4----4--5--4----2--4----|
G|----4-----4-----4-----------4---------4----------|
D|-------------------------------------------------|
A|-------------------------------------------------|
E|-------------------------------------------------|

(2nd Guitar)
e|---------------------------------------|
B|---------------------------------------|
G|-4-------3-------4-------8------4------|
D|-x-x8----x-x8----x-x8----x-x4---x-x4---|
A|-2-------1-------2-------6------2------|
E|---------------------------------------|

(then 2nd guitar plays this by himself twice)
e|-------------------|
B|-------------------|
G|-4-/-6---8---6---4-|
D|-x---x---x---x---x-|
A|-2-/-4---6---4---2-|
E|-------------------|


************************************

| x  Dead note
| /  Slide up

************************************

            
            
Suggest correction
Creating personal tab
Creating personal tab
You can edit any tab online and save it as your Personal.

You can edit, replace or remove any tab part or add personal notes – all changes will be seen only by you.

Personal tabs can be accessed anytime from any device, even offline.
Learn more »
comments
print report bad tab
9 comments total. Showing first comments.
0 reply
beefy_101 50 Nov 18, 2003 07:00 PM

why thank you, and who gave it a 2?

0 reply
LiL_rocker808 20 Nov 23, 2003 07:00 PM

cool tab...im so tired.i have homework but i dont wanna d it........
o welll i have t odo it....oooooh my moms making roast beed anyone want some?

0 reply
reckless 60 Dec 01, 2003 07:00 PM

Cool tab. I worked out the synth bit at the end, maybe u cud add it or something. Here it is:

E-----------------------------------------
A-16-14-12--16-14-12--16-14-12--17-12-14--
G-----------------------------------------
D-----------------------------------------
A-----------------------------------------
E-----------------------------------------

guest
You may want to rate the tab now too:
select rating
Wanna post a correction for this tab? Suggest correction