Oops, an error
Loading. Please wait.
We have an official Always tab made by UG professional guitarists. Check out the tab »
×

Always tab

version 11
version 11

Whole song

Video

  • High quality, easy to follow video lesson.
398 views 3 this week
no commentswrite comment
1 2 3 4 5
2 more votes to show rating
add to favorites
×
Save as Personal and add changes to this tab that will be seen only by you. Learn more ›
×
You can save this tab as Personal to edit and correct it or add notes. All changes will be seen only by you. Learn more »
launch autoscroll
font size
0
reset
how to read this tab
guitar tuner
edit
Autoscroll
slow
fast
+/-
esc
set tempo
stop
Author
Difficulty
-------------------------------------------------------------------------------
                             ALWAYS - blink-182
-------------------------------------------------------------------------------
Tabbed by: Eric Robinson
E-mail: kphoenix@live.com

Tuning: E standard

This tab is meant to be 100% correct with an extra alternate way to 
play the song if you're playing alone without a full band. I 
checked the other tabs and none of them seem to be 100% correct, 
but close however. I listened thoroughly to the isolated guitar 
tracks from this song and am confident everything is spot on. 
Please rate this 5 stars to help out the blink-182 guitar player 
community. :)

Also, in this tab, ~ does not mean vibrato, but instead to let ring 
out.

Intro (THE CORRECT WAY):
e|-----------------------------------------------------------------
B|-----------------------------------------------------------------
G|-----------------------------------------------------------------
D|-----------------------------------------------------------------
A|-----------------------------------------------------------------
E|-----------------------------------------------------------------

e|-----------------------------------------------------------------
B|-----------------------------------------------------------------
G|-----------------------------------------------------------------
D|-----------------------------------------------------------------
A|-----------------------------------------------------------------
E|-----------------------------------------------------------------

===OR===

Intro (ALTERED FOR NO BASS GUITAR):
(Clean with reverb)
e|-----------------------------------------------------------------
B|-----------------------------------------------------------------
G|-----------------------------------------------------------------
D|-----------------------------------------------------------------
A|-2-2-2-2-2-2-2-2-4-4-4-4-4-4-4-4-6-6-6-6-6-6-6-6-2-2-2-2-2-2-2-2-
E|-2-2-2-2-2-2-2-2-2-2-2-2-2-2-2-2-4-4-4-4-4-4-4-4-0-0-0-0-0-0-0-0-

e|-----------------------------------------------------------------
B|-----------------------------------------------------------------
G|-----------------------------------------------------------------
D|-----------------------------------------------------------------
A|-2-2-2-2-2-2-2-2-4-4-4-4-4-4-4-4-6-6-6-6-6-6-6-6-2-2-2-2-2-2-2-2-
E|-2-2-2-2-2-2-2-2-2-2-2-2-2-2-2-2-4-4-4-4-4-4-4-4-0-0-0-0-0-0-0-0-

Verse I (THE CORRECT WAY):
(P.M. Distortion)
e|-----------------------------------------------------------------
B|-----------------------------------------------------------------
G|-----------------------------------------------------------------
D|-----------------------------------------------------------------
A|-----------------------------------------------------------------
E|-----------------------------------------------------------------

e|-----------------------------------------------------------------
B|-----------------------------------------------------------------
G|-----------------------------------------------------------------
D|-----------------------------------------------------------------
A|-----------------------------------------------------------------
E|-----------------------------------------------------------------

e|-----------------------------------------------------------------
B|-----------------------------------------------------------------
G|-----------------------------------------------------------------
D|-----------------------------------------------------------------
A|-6-6-6-6-6-6-6-6-4-4-4-4-4-4-4-4-2-2-2-2-2-2-2-2-2-2-2-2-2-2-2-2-
E|-7-7-7-7-7-7-7-7-6-6-6-6-6-6-6-6-4-4-4-4-4-4-4-4-4-4-4-4-4-4-4-4-

e|-----------------------------------------------------------------
B|-----------------------------------------------------------------
G|-----------------------------------------------------------------
D|-----------------------------------------------------------------
A|-6-6-6-6-6-6-6-6-4-4-4-4-4-4-4-4-2-2-2-2-2-2-2-2-4-4-4-4-4-4-4-4-
E|-7-7-7-7-7-7-7-7-6-6-6-6-6-6-6-6-4-4-4-4-4-4-4-4-2-2-2-2-2-2-2-2-

==OR==

Verse I (ALTERED FOR NO BASS GUITAR):
(Clean with reverb)
e|-----------------------------------------------------------------
B|-----------------------------------------------------------------
G|-----------------------------------------------------------------
D|-----------------------------------------------------------------
A|-6-6-6-6-6-6-6-6-4-4-4-4-4-4-4-4-2-2-2-2-2-2-2-2-2-2-2-2-2-2-2-2-
E|-7-7-7-7-7-7-7-7-6-6-6-6-6-6-6-6-4-4-4-4-4-4-4-4-4-4-4-4-4-4-4-4-

e|-----------------------------------------------------------------
B|-----------------------------------------------------------------
G|-----------------------------------------------------------------
D|-----------------------------------------------------------------
A|-6-6-6-6-6-6-6-6-4-4-4-4-4-4-4-4-2-2-2-2-2-2-2-2-2-2-2-2-2-2-2-2-
E|-7-7-7-7-7-7-7-7-6-6-6-6-6-6-6-6-4-4-4-4-4-4-4-4-4-4-4-4-4-4-4-4-

(P.M. Distortion)
e|-----------------------------------------------------------------
B|-----------------------------------------------------------------
G|-----------------------------------------------------------------
D|-----------------------------------------------------------------
A|-6-6-6-6-6-6-6-6-4-4-4-4-4-4-4-4-2-2-2-2-2-2-2-2-2-2-2-2-2-2-2-2-
E|-7-7-7-7-7-7-7-7-6-6-6-6-6-6-6-6-4-4-4-4-4-4-4-4-4-4-4-4-4-4-4-4-

e|-----------------------------------------------------------------
B|-----------------------------------------------------------------
G|-----------------------------------------------------------------
D|-----------------------------------------------------------------
A|-6-6-6-6-6-6-6-6-4-4-4-4-4-4-4-4-2-2-2-2-2-2-2-2-4-4-4-4-4-4-4-4-
E|-7-7-7-7-7-7-7-7-6-6-6-6-6-6-6-6-4-4-4-4-4-4-4-4-2-2-2-2-2-2-2-2-

Pre-Chorus I Guitar 1:
(Distortion)
e|--|-----------------------------------------------------------------
B|--|-----------------------------------------------------------------
G|-4|44-~-~-~-~-~-~-~-~-~-~-~-~-~-------------------------------------
D|--|-----------------------------------------------------------------
A|-2|22-~-~-~-~-~-~-~-~-~-~-~-~-~-------------------------------------
E|--|-----------------------------------------------------------------

e|--|-----------------------------------------------------------------
B|--|-----------------------------------------------------------------
G|-4|44-~-~-~-~-~-~-~-~-~-~-~-~-~-------------------------------------
D|--|-----------------------------------------------------------------
A|-2|22-~-~-~-~-~-~-~-~-~-~-~-~-~-------------------------------------
E|--|-----------------------------------------------------------------
(Note: The notes between the bars mean it's played on the last note 
of the previous section)

Pre-Chorus I Guitar 2:
(Clean with reverb and modulation)
e|-----------------------------------------------------------------
B|---------4-----4---------4-----4---------4-----4-----------------
G|-----4-------4-------4-------4-------4-------4-------4-------4---
D|-----------------------------------------------------------------
A|-2-2---2---2-----4-4---4---4-------------------------------------
E|---------------------------------4-4---4---4-----0-0---0-0-0---0-

e|-----------------------------------------------------------------
B|---------4-----4---------4-----4---------4-----4-----------------
G|-----4-------4-------4-------4-------4-------4-------4-------4---
D|-----------------------------------------------------------------
A|-2-2---2---2-----4-4---4---4-------------------------------------
E|---------------------------------4-4---4---4-----0-0---0-0-0---0-

Chorus I Guitar 1:
(Distortion)
e|-----------------------------------------------------------------
B|-----------------------------------------------------------------
G|-4---4---4---4---4---4---4---4-----------------------------------
D|-4-4-4-4-4-4-4-4-4-4-4-4-4-4-4-4-6---6---6---6---2---2---2---2---
A|-2-2-2-2-2-2-2-2-2-2-2-2-2-2-2-2-6-6-6-6-6-6-6-6-2-2-2-2-2-2-2-2-
E|---------------------------------4-4-4-4-4-4-4-4-0-0-0-0-0-0-0-0-

e|-----------------------------------------------------------------
B|-----------------------------------------------------------------
G|-4---4---4---4---4---4---4---4-----------------------------------
D|-4-4-4-4-4-4-4-4-4-4-4-4-4-4-4-4-6---6---6---6---2---2---2---2--
A|-2-2-2-2-2-2-2-2-2-2-2-2-2-2-2-2-6-6-6-6-6-6-6-6-2-2-2-2-2-2-2-2-
E|---------------------------------4-4-4-4-4-4-4-4-0-0-0-0-0-0-0-0-
(Note: These are straight power chords but tabbed to reflect the 
nuances in Tom Delonge's guitar playing)

Chorus I Guitar 2:
(Distortion)
e|-----------------------------------------------------------------
B|-----------------------------------------------------------------
G|-4---4---4---4---8---8---8---8-----------------------------------
D|-4-4-4-4-4-4-4-4-x-x-x-x-x-x-x-x-6---6---6---6---2---2---2---2---
A|-2-2-2-2-2-2-2-2-6-6-6-6-6-6-6-6-6-6-6-6-6-6-6-6-2-2-2-2-2-2-2-2-
E|---------------------------------4-4-4-4-4-4-4-4-0-0-0-0-0-0-0-0-

e|-----------------------------------------------------------------
B|-----------------------------------------------------------------
G|-4---4---4---4---8---8---8---8-----------------------------------
D|-4-4-4-4-4-4-4-4-x-x-x-x-x-x-x-x-6---6---6---6---2---2---2---2--
A|-2-2-2-2-2-2-2-2-6-6-6-6-6-6-6-6-6-6-6-6-6-6-6-6-2-2-2-2-2-2-2-2-
E|---------------------------------4-4-4-4-4-4-4-4-0-0-0-0-0-0-0-0-

Post-Chorus I Guitar 1:
(Distortion)
e|-----------------------------------------------------------------
B|-----------------------------------------------------------------
G|-4-~-~-~-~-~-~-~-~-~-~-~-~-~-------------------------------------
D|-----------------------------------------------------------------
A|-2-~-~-~-~-~-~-~-~-~-~-~-~-~-------------------------------------
E|-----------------------------------------------------------------

e|-----------------------------------------------------------------
B|-----------------------------------------------------------------
G|-----------------------------------------------------------------
D|-----------------------------------------------------------------
A|-----------------------------------------------------------------
E|-----------------------------------------------------------------

Post-Chorus I Guitar 2:
(Clean with reverb and modulation)
e|-----------------------------------------------------------------
B|---------4-----4---------4-----4---------4-----4-----------------
G|-----4-------4-------4-------4-------4-------4-------4-------4---
D|-----------------------------------------------------------------
A|-2-2---2---2-----4-4---4---4-------------------------------------
E|---------------------------------4-4---4---4-----0-0---0-0-0---0-

e|-----------------------------------------------------------------
B|---------4-----4---------4-----4---------4-----4-----------------
G|-----4-------4-------4-------4-------4-------4-------4-------4---
D|-----------------------------------------------------------------
A|-2-2---2---2-----4-4---4---4-------------------------------------
E|---------------------------------4-4---4---4-----0-0---0-0-0---0-


Verse II (THE CORRECT WAY):
(Clean with reverb and modulation)
e|-----------------------------------------------------------------
B|-----------------------------------------------------------------
G|-----------------------------------------------------------------
D|-----------------------------------------------------------------
A|-6-~-~-~-~-~-~-~-------------------------------------------------
E|-7-~-~-~-~-~-~-~-------------------------------------------------

e|-----------------------------------------------------------------
B|-----------------------------------------------------------------
G|-----------------------------------------------------------------
D|-----------------------------------------------------------------
A|-----------------------------------------------------------------
E|-----------------------------------------------------------------

e|-----------------------------------------------------------------
B|-----------------------------------------------------------------
G|-----------------------------------------------------------------
D|-----------------------------------------------------------------
A|-----------------------------------------------------------------
E|-----------------------------------------------------------------

e|-----------------------------------------------------------------
B|-----------------------------------------------------------------
G|-----------------------------------------------------------------
D|-----------------------------------------------------------------
A|-----------------------------------------------------------------
E|-----------------------------------------------------------------

===OR===

Verse II (ALTERED FOR NO BASS GUITAR):
(Clean with reverb and modulation)
e|-----------------------------------------------------------------
B|-----------------------------------------------------------------
G|-----------------------------------------------------------------
D|-----------------------------------------------------------------
A|-6-~-~-~-~-~-6---4-----------4---6-------------------------------
E|-7-----7---------------6---------------4-----2-/-4---------------

e|-----------------------------------------------------------------
B|-----------------------------------------------------------------
G|-----------------------------------------------------------------
D|-----------------------------------------------------------------
A|-6-----------6---4-----------4---6-------------------------------
E|-------7---------------6---------------4-----2-/-4---------------

e|-----------------------------------------------------------------
B|-----------------------------------------------------------------
G|-----------------------------------------------------------------
D|-----------------------------------------------------------------
A|-6-----------6---4-----------4---6-------------------------------
E|-------7---------------6---------------4-----2--/4---------------

e|-----------------------------------------------------------------
B|-----------------------------------------------------------------
G|-----------------------------------------------------------------
D|-----------------------------------------------------------------
A|-6-----------6---4-----------4---6-------------------------------
E|-------7---------------6---------------4-----2--/4---------------

Pre-Chorus II Guitar 1:
(Distortion)
e|--|-----------------------------------------------------------------
B|--|-----------------------------------------------------------------
G|-4|44-~-~-~-~-~-~-~-~-~-~-~-~-~-------------------------------------
D|--|-----------------------------------------------------------------
A|-2|22-~-~-~-~-~-~-~-~-~-~-~-~-~-------------------------------------
E|--|-----------------------------------------------------------------

e|--|-----------------------------------------------------------------
B|--|-----------------------------------------------------------------
G|-4|44-~-~-~-~-~-~-~-~-~-~-~-~-~-------------------------------------
D|--|-----------------------------------------------------------------
A|-2|22-~-~-~-~-~-~-~-~-~-~-~-~-~-------------------------------------
E|--|-----------------------------------------------------------------

e|--|-----------------------------------------------------------------
B|--|-----------------------------------------------------------------
G|-4|44-~-~-~-~-~-~-~-~-~-~-~-~-~-------------------------------------
D|--|-----------------------------------------------------------------
A|-2|22-~-~-~-~-~-~-~-~-~-~-~-~-~-------------------------------------
E|--|-----------------------------------------------------------------

e|--|-----------------------------------------------------------------
B|--|-----------------------------------------------------------------
G|-4|44-~-~-~-~-~-~-~-~-~-~-~-~-~-------------------------------------
D|--|-----------------------------------------------------------------
A|-2|22-~-~-~-~-~-~-~-~-~-~-~-~-~-------------------------------------
E|--|-----------------------------------------------------------------

Pre-Chorus II Guitar 2:
(Clean with reverb and modulation)
e|-----------------------------------------------------------------
B|---------4-----4---------4-----4---------4-----4-----------------
G|-----4-------4-------4-------4-------4-------4-------4-------4---
D|-----------------------------------------------------------------
A|-2-2---2---2-----4-4---4---4-------------------------------------
E|---------------------------------4-4---4---4-----0-0---0-0-0---0-

e|-----------------------------------------------------------------
B|---------4-----4---------4-----4---------4-----4-----------------
G|-----4-------4-------4-------4-------4-------4-------4-------4---
D|-----------------------------------------------------------------
A|-2-2---2---2-----4-4---4---4-------------------------------------
E|---------------------------------4-4---4---4-----0-0---0-0-0---0-

e|-----------------------------------------------------------------
B|---------4-----4---------4-----4---------4-----4-----------------
G|-----4-------4-------4-------4-------4-------4-------4-------4---
D|-----------------------------------------------------------------
A|-2-2---2---2-----4-4---4---4-------------------------------------
E|---------------------------------4-4---4---4-----0-0---0-0-0---0-

e|-----------------------------------------------------------------
B|---------4-----4---------4-----4---------4-----4-----------------
G|-----4-------4-------4-------4-------4-------4-------4-------4---
D|-----------------------------------------------------------------
A|-2-2---2---2-----4-4---4---4-------------------------------------
E|---------------------------------4-4---4---4-----0-0---0-0-0---0-

Chorus II Guitar 1:
(Distortion)
e|-----------------------------------------------------------------
B|-----------------------------------------------------------------
G|-4---4---4---4---4---4---4---4-----------------------------------
D|-4-4-4-4-4-4-4-4-4-4-4-4-4-4-4-4-6---6---6---6---2---2---2---2--
A|-2-2-2-2-2-2-2-2-2-2-2-2-2-2-2-2-6-6-6-6-6-6-6-6-2-2-2-2-2-2-2-2-
E|---------------------------------4-4-4-4-4-4-4-4-0-0-0-0-0-0-0-0-

e|-----------------------------------------------------------------
B|-----------------------------------------------------------------
G|-4---4---4---4---4---4---4---4-----------------------------------
D|-4-4-4-4-4-4-4-4-4-4-4-4-4-4-4-4-6---6---6---6---2---2---2---2--
A|-2-2-2-2-2-2-2-2-2-2-2-2-2-2-2-2-6-6-6-6-6-6-6-6-2-2-2-2-2-2-2-2-
E|---------------------------------4-4-4-4-4-4-4-4-0-0-0-0-0-0-0-0-

e|-----------------------------------------------------------------
B|-----------------------------------------------------------------
G|-4---4---4---4---4---4---4---4-----------------------------------
D|-4-4-4-4-4-4-4-4-4-4-4-4-4-4-4-4-6---6---6---6---2---2---2---2--
A|-2-2-2-2-2-2-2-2-2-2-2-2-2-2-2-2-6-6-6-6-6-6-6-6-2-2-2-2-2-2-2-2-
E|---------------------------------4-4-4-4-4-4-4-4-0-0-0-0-0-0-0-0-

e|-----------------------------------------------------------------
B|-----------------------------------------------------------------
G|-4---4---4---4---4---4---4---4-----------------------------------
D|-4-4-4-4-4-4-4-4-4-4-4-4-4-4-4-4-6---6---6---6---2---2---2---2--
A|-2-2-2-2-2-2-2-2-2-2-2-2-2-2-2-2-6-6-6-6-6-6-6-6-2-2-2-2-2-2-2-2-
E|---------------------------------4-4-4-4-4-4-4-4-0-0-0-0-0-0-0-0-

Chorus II Guitar 2:
(Distortion)
e|-----------------------------------------------------------------
B|-----------------------------------------------------------------
G|-4---4---4---4---8---8---8---8-----------------------------------
D|-4-4-4-4-4-4-4-4-x-x-x-x-x-x-x-x-6---6---6---6---2---2---2---2--
A|-2-2-2-2-2-2-2-2-6-6-6-6-6-6-6-6-6-6-6-6-6-6-6-6-2-2-2-2-2-2-2-2-
E|---------------------------------4-4-4-4-4-4-4-4-0-0-0-0-0-0-0-0-

e|-----------------------------------------------------------------
B|-----------------------------------------------------------------
G|-4---4---4---4---8---8---8---8-----------------------------------
D|-4-4-4-4-4-4-4-4-x-x-x-x-x-x-x-x-6---6---6---6---2---2---2---2--
A|-2-2-2-2-2-2-2-2-6-6-6-6-6-6-6-6-6-6-6-6-6-6-6-6-2-2-2-2-2-2-2-2-
E|---------------------------------4-4-4-4-4-4-4-4-0-0-0-0-0-0-0-0-

e|-----------------------------------------------------------------
B|-----------------------------------------------------------------
G|-4---4---4---4---8---8---8---8-----------------------------------
D|-4-4-4-4-4-4-4-4-x-x-x-x-x-x-x-x-6---6---6---6---2---2---2---2--
A|-2-2-2-2-2-2-2-2-6-6-6-6-6-6-6-6-6-6-6-6-6-6-6-6-2-2-2-2-2-2-2-2-
E|---------------------------------4-4-4-4-4-4-4-4-0-0-0-0-0-0-0-0-

e|-----------------------------------------------------------------
B|-----------------------------------------------------------------
G|-4---4---4---4---8---8---8---8-----------------------------------
D|-4-4-4-4-4-4-4-4-x-x-x-x-x-x-x-x-6---6---6---6---2---2---2---2--
A|-2-2-2-2-2-2-2-2-6-6-6-6-6-6-6-6-6-6-6-6-6-6-6-6-2-2-2-2-2-2-2-2-
E|---------------------------------4-4-4-4-4-4-4-4-0-0-0-0-0-0-0-0-

Interlude I Guitar 1:
(Distortion)
e|-----------------------------------------------------------------
B|-----------------------------------------------------------------
G|-4---4---4---4---3---3---3---3---4---4---4---4-----8-8/9-8\4-4-~-
D|-4-4-4-4-4-4-4-4-4-4-4-4-4-4-4-4-4-4-4-4-4-4-4-4---x-x-x-x-x-x---
A|-2-2-2-2-2-2-2-2-1-1-1-1-1-1-1-1-2-2-2-2-2-2-2-2---6-6/7-6\2-2-~-
E|-----------------------------------------------------------------

e|-----------------------------------------------------------------
B|-----------------------------------------------------------------
G|-4---4---4---4---3---3---3---3---4---4---4---4-----8-8/9-8\4-4/6/
D|-4-4-4-4-4-4-4-4-4-4-4-4-4-4-4-4-4-4-4-4-4-4-4-4---x-x-x-x-x-x/x/
A|-2-2-2-2-2-2-2-2-1-1-1-1-1-1-1-1-2-2-2-2-2-2-2-2---6-6/7-6\2-2/4/
E|-----------------------------------------------------------------

Interlude I Guitar 2:
(Clean with reverb and modulation)

e|-----------------------------------------------------------------
B|-4---4---4---4-5-4---4---4---4-5-4---4---4---4-5-4---4-5-4---4-5-
G|---4---4---4-------4---4---4-------4---4---4-------4-------4-----
D|-----------------------------------------------------------------
A|-----------------------------------------------------------------
E|-----------------------------------------------------------------

e|-----------------------------------------------------------------
B|-4---4---4---4-5-4---4---4---4-5-4---4---4---4-5-4---4-5-4---4-5-
G|---4---4---4-------4---4---4-------4---4---4-------4-------4-----
D|-----------------------------------------------------------------
A|-----------------------------------------------------------------
E|-----------------------------------------------------------------

Interlude II (THE CORRECT WAY):
(Distortion)
e|-----------------------------------------------------------------
B|-----------------------------------------------------------------
G|-----------------------------------------------------------------
D|-----------------------------------------------------------------
A|-6-~-~-~-~-~-~-~\4-~-~-~-~-~-~-~-2-~-~-~-~-~-~-~-~-~-~-~-2-4-~-~-
E|-----------------------------------------------------------------

e|-----------------------------------------------------------------
B|-----------------------------------------------------------------
G|-----------------------------------------------------------------
D|-----------------------------------------------------------------
A|-6-~-~-~-~-~-~-~\4-~-~-~-~-~-~-~-2-~-~-~-~-~-~-~-~-~-~-~-~-~-~-~-
E|-----------------------------------------------------------------

===OR===
Interlude II (ALTERED FOR NO BASS GUITAR):
(Clean with reverb)
e|-----------------------------------------------------------------
B|-----------------------------------------------------------------
G|-----------------------------------------------------------------
D|-----------------------------------------------------------------
A|-2-2-2-2-2-2-2-2-4-4-4-4-4-4-4-4-6-6-6-6-6-6-6-6-2-2-2-2-2-2-2-2-
E|-2-2-2-2-2-2-2-2-2-2-2-2-2-2-2-2-4-4-4-4-4-4-4-4-0-0-0-0-0-0-0-0-

e|-----------------------------------------------------------------
B|-----------------------------------------------------------------
G|-----------------------------------------------------------------
D|-----------------------------------------------------------------
A|-2-2-2-2-2-2-2-2-4-4-4-4-4-4-4-4-6-6-6-6-6-6-6-6-2-2-2-2-2-2-2-2-
E|-2-2-2-2-2-2-2-2-2-2-2-2-2-2-2-2-4-4-4-4-4-4-4-4-0-0-0-0-0-0-0-0-

Verse III (THE CORRECT WAY):
e|-----------------------------------------------------------------
B|-----------------------------------------------------------------
G|-----------------------------------------------------------------
D|-----------------------------------------------------------------
A|-----------------------------------------------------------------
E|-----------------------------------------------------------------

e|-----------------------------------------------------------------
B|-----------------------------------------------------------------
G|-----------------------------------------------------------------
D|-----------------------------------------------------------------
A|-----------------------------------------------------------------
E|-----------------------------------------------------------------

Verse III (ALTERED FOR NO DRUMS):
e|-----------------------------------------------------------------
B|-----------------------------------------------------------------
G|-----------------------------------------------------------------
D|-----------------------------------------------------------------
A|-2-2-2-2-2-2-2-2-4-4-4-4-4-4-4-4-6-6-6-6-6-6-6-6-2-2-2-2-2-2-2-2-
E|-2-2-2-2-2-2-2-2-2-2-2-2-2-2-2-2-4-4-4-4-4-4-4-4-0-0-0-0-0-0-0-0-

e|-----------------------------------------------------------------
B|-----------------------------------------------------------------
G|-----------------------------------------------------------------
D|-----------------------------------------------------------------
A|-2-2-2-2-2-2-2-2-4-4-4-4-4-4-4-4-6-6-6-6-6-6-6-6-2---------------
E|-2-2-2-2-2-2-2-2-2-2-2-2-2-2-2-2-4-4-4-4-4-4-4-4-0---------------
(Note: There are a few extra beats thrown into this song before 
going back into the chorus)

Chorus III Guitar 1:
(Distortion)
e|-----------------------------------------------------------------
B|-----------------------------------------------------------------
G|-4---4---4---4---4---4---4---4-----------------------------------
D|-4-4-4-4-4-4-4-4-4-4-4-4-4-4-4-4-6---6---6---6---2---2---2---2--
A|-2-2-2-2-2-2-2-2-2-2-2-2-2-2-2-2-6-6-6-6-6-6-6-6-2-2-2-2-2-2-2-2-
E|---------------------------------4-4-4-4-4-4-4-4-0-0-0-0-0-0-0-0-

e|-----------------------------------------------------------------
B|-----------------------------------------------------------------
G|-4---4---4---4---4---4---4---4-----------------------------------
D|-4-4-4-4-4-4-4-4-4-4-4-4-4-4-4-4-6---6---6---6---2---2---2---2--
A|-2-2-2-2-2-2-2-2-2-2-2-2-2-2-2-2-6-6-6-6-6-6-6-6-2-2-2-2-2-2-2-2-
E|---------------------------------4-4-4-4-4-4-4-4-0-0-0-0-0-0-0-0-

e|-----------------------------------------------------------------
B|-----------------------------------------------------------------
G|-4---4---4---4---4---4---4---4-----------------------------------
D|-4-4-4-4-4-4-4-4-4-4-4-4-4-4-4-4-6---6---6---6---2---2---2---2--
A|-2-2-2-2-2-2-2-2-2-2-2-2-2-2-2-2-6-6-6-6-6-6-6-6-2-2-2-2-2-2-2-2-
E|---------------------------------4-4-4-4-4-4-4-4-0-0-0-0-0-0-0-0-

e|-----------------------------------------------------------------
B|-----------------------------------------------------------------
G|-4---4---4---4---4---4---4---4-----------------------------------
D|-4-4-4-4-4-4-4-4-4-4-4-4-4-4-4-4-6---6---6---6---2---2---2---2--
A|-2-2-2-2-2-2-2-2-2-2-2-2-2-2-2-2-6-6-6-6-6-6-6-6-2-2-2-2-2-2-2-2-
E|---------------------------------4-4-4-4-4-4-4-4-0-0-0-0-0-0-0-0-

Chorus III Guitar 2:
(Distortion)
e|-----------------------------------------------------------------
B|-----------------------------------------------------------------
G|-4---4---4---4---8---8---8---8-----------------------------------
D|-4-4-4-4-4-4-4-4-x-x-x-x-x-x-x-x-6---6---6---6---2---2---2---2--
A|-2-2-2-2-2-2-2-2-6-6-6-6-6-6-6-6-6-6-6-6-6-6-6-6-2-2-2-2-2-2-2-2-
E|---------------------------------4-4-4-4-4-4-4-4-0-0-0-0-0-0-0-0-

e|-----------------------------------------------------------------
B|-----------------------------------------------------------------
G|-4---4---4---4---8---8---8---8-----------------------------------
D|-4-4-4-4-4-4-4-4-x-x-x-x-x-x-x-x-6---6---6---6---2---2---2---2--
A|-2-2-2-2-2-2-2-2-6-6-6-6-6-6-6-6-6-6-6-6-6-6-6-6-2-2-2-2-2-2-2-2-
E|---------------------------------4-4-4-4-4-4-4-4-0-0-0-0-0-0-0-0-

e|-----------------------------------------------------------------
B|-----------------------------------------------------------------
G|-4---4---4---4---8---8---8---8-----------------------------------
D|-4-4-4-4-4-4-4-4-x-x-x-x-x-x-x-x-6---6---6---6---2---2---2---2--
A|-2-2-2-2-2-2-2-2-6-6-6-6-6-6-6-6-6-6-6-6-6-6-6-6-2-2-2-2-2-2-2-2-
E|---------------------------------4-4-4-4-4-4-4-4-0-0-0-0-0-0-0-0-

e|-----------------------------------------------------------------
B|-----------------------------------------------------------------
G|-4---4---4---4---8---8---8---8-----------------------------------
D|-4-4-4-4-4-4-4-4-x-x-x-x-x-x-x-x-6---6---6---6---2---2---2---2--
A|-2-2-2-2-2-2-2-2-6-6-6-6-6-6-6-6-6-6-6-6-6-6-6-6-2-2-2-2-2-2-2-2-
E|---------------------------------4-4-4-4-4-4-4-4-0-0-0-0-0-0-0-0-

Outtro Guitar 1:
(Distortion)
e|-----------------------------------------------------------------
B|-----------------------------------------------------------------
G|-4-4-4-4-4-4-4-4-4-4-4-4-4-4-4-4-4-4-4-4-4-4-4-4-4-4-4-4-4-4-4-4-
D|-x-x-x-x-x-x-x-x-x-x-x-x-x-x-x-x-x-x-x-x-x-x-x-x-x-x-x-x-x-x-x-x-
A|-2-2-2-2-2-2-2-2-2-2-2-2-2-2-2-2-2-2-2-2-2-2-2-2-2-2-2-2-2-2-2-2-
E|-----------------------------------------------------------------

e|-----------------------------------------------------------------
B|-----------------------------------------------------------------
G|-4-4-4-4-4-4-4-4-4-4-4-4-4-4-4-4-4-4-4-4-4-4-4-4-4-4-4-4-4-4-4-4-
D|-x-x-x-x-x-x-x-x-x-x-x-x-x-x-x-x-x-x-x-x-x-x-x-x-x-x-x-x-x-x-x-x-
A|-2-2-2-2-2-2-2-2-2-2-2-2-2-2-2-2-2-2-2-2-2-2-2-2-2-2-2-2-2-2-2-2-
E|-----------------------------------------------------------------

e|-----------------------------------------------------------------
B|-----------------------------------------------------------------
G|-4-~-~-~-~-~-~-~-~-~-~-~-~-~-~-~-~-~-~-~-~-~-~-~-~-~-~-~-~-~-~-~-
D|-x---------------------------------------------------------------
A|-2-~-~-~-~-~-~-~-~-~-~-~-~-~-~-~-~-~-~-~-~-~-~-~-~-~-~-~-~-~-~-~-
E|-----------------------------------------------------------------

Outtro Guitar 2:
(Clean with reverb and modulation)
e|-----------------------------------------------------------------
B|-4---4---4---4-5-4---4---4---4-5-4---4---4---4-5-4---4-5-4---4-5-
G|---4---4---4-------4---4---4-------4---4---4-------4-------4-----
D|-----------------------------------------------------------------
A|-----------------------------------------------------------------
E|-----------------------------------------------------------------

e|-----------------------------------------------------------------
B|-4---4---4---4-5-4---4---4---4-5-4---4---4---4-5-4---4-5-4---4-5-
G|---4---4---4-------4---4---4-------4---4---4-------4-------4-----
D|-----------------------------------------------------------------
A|-----------------------------------------------------------------
E|-----------------------------------------------------------------

e|-----------------------------------------------------------------
B|-4---------------------------------------------------------------
G|-----4-~-~-~-~-~-~-~-~-~-~-~-~-~-~-~-~-~-~-~-~-~-~-~-~-~-~-~-~-~-
D|-----------------------------------------------------------------
A|-----------------------------------------------------------------
E|-----------------------------------------------------------------

Outtro Guitar 3:
(Clean with reverb and modulation)

e|-----------------------------------------------------------------
B|-----------------------------------------------------------------
G|-----------------------------------------------------------------
D|-1---1---1---1-2-1---1---1---1-2-1---1---1---1-2-1---1-2-1---1-2-
A|---2---2---2-------2---2---2-------2---2---2-------2-------2-----
E|-----------------------------------------------------------------

e|-----------------------------------------------------------------
B|-----------------------------------------------------------------
G|-----------------------------------------------------------------
D|-1---1---1---1-2-1---1---1---1-2-1---1---1---1-2-1---1-2-1---1-2-
A|---2---2---2-------2---2---2-------2---2---2-------2-------2-----
E|-----------------------------------------------------------------

e|-----------------------------------------------------------------
B|-----------------------------------------------------------------
G|-----------------------------------------------------------------
D|-1---------------------------------------------------------------
A|-----2-~-~-~-~-~-~-~-~-~-~-~-~-~-~-~-~-~-~-~-~-~-~-~-~-~-~-~-~-~-
E|-----------------------------------------------------------------

            
            
Suggest correction
Creating personal tab
Creating personal tab
You can edit any tab online and save it as your Personal.

You can edit, replace or remove any tab part or add personal notes – all changes will be seen only by you.

Personal tabs can be accessed anytime from any device, even offline.
Learn more »
Give kudos to tab author, rate the tab!
1 2 3 4 5
comments
print report bad tab
guest
You may want to rate the tab now too:
select rating
Wanna post a correction for this tab? Suggest correction