Oops, an error
Loading. Please wait.
We have an official Always tab made by UG professional guitarists. Check out the tab »
×

Always Acoustic chords

version 9
version 9

Whole song

Video

  • High quality, easy to follow video lesson.
433 views 3 this week
no commentswrite comment
1 2 3 4 5
3 more votes to show rating
add to favorites
×
Save as Personal and add changes to this tab that will be seen only by you. Learn more ›
×
You can save this tab as Personal to edit and correct it or add notes. All changes will be seen only by you. Learn more »
launch autoscroll
font size
0
reset
transpose
0
reset
simplify chords
display chords
guitar tuner
edit
Autoscroll
slow
fast
+/-
esc
set tempo
stop
About this tab version
Open chords, no capo, mini tab for riffs, verse progression is without F, chorus is with an Em instead of a G. Was this info helpful? Yes No
Strumming
There is no strumming pattern for this song yet. and get +5 IQ
Title: Always (Acoustic)
Artist: Blink-182
Album: Blink-182

Author of the Tab: palmierimatteo2

Tuning: Half-Step Down
Difficulty: Intermediate
Capo: No

[Intro]

C G/B Am F x2


[Verse]

           C     G/B    Am
I've been here before a few times
         C     G/B        Am
And I'm quite aware we're dying
          C          G/B       Am
And your hands they shake with goodbyes
         C        G/B           Am        G
And I'll take you back if you'd have me


[Pre-Chorus]

     C    C/G    Am   F
So here I am I'm trying
     C    C/G        Am   F
So here I am are you ready

eb|-----------------------------------------------|
Bb|-----5---5-------5---5-------5---5-------------|
Gb|---5----5------5----5------5----5------5--5--5-|
Db|-------------------------------------11-111-111|
Ab|-33-3-3------55-5-5----------------------------|
Eb|-------------------------55-5-5----------------| x 2


[Chorus]

               C         Em         Am   
Come on let me hold you, touch you, feel you
F
Always
C         Em        Am        
Kiss you, taste you all night 
F
Always


[Instrumental]

C C/G Am F x2

and

eb|-----------------------------------------------|
Bb|-----5---5-------5---5-------5---5-------------|
Gb|---5----5------5----5------5----5------5--5--5-|
Db|-------------------------------------11-111-111|
Ab|-33-3-3------55-5-5----------------------------|
Eb|-------------------------55-5-5----------------| x 2


[Verse]

         C         G/B        Am
And I'll miss your laugh your smile
        C      G/B            Am
I'll admit I'm wrong if you'd tell me
       C       G/B       Am
I'm so sick of fights, I hate them
           C    G/B       Am     G
Lets start this again for real


[Pre-Chorus]

     C     C/G   Am   F
So here I am I'm trying
     C     C/G       Am   F
So here I am are you ready
     C     C/G   Am   F
So here I am I'm trying
     C     C/G       Am  F
So here I am are you ready

eb|-----------------------------------------------|
Bb|-----5---5-------5---5-------5---5-------------|
Gb|---5----5------5----5------5----5------5--5--5-|
Db|-------------------------------------11-111-111|
Ab|-33-3-3------55-5-5----------------------------|
Eb|-------------------------55-5-5----------------| x 4


[Chorus]

                C         Em        Am   
Come on let me hold you, touch you, feel you
F
Always
C         Em        Am       
Kiss you, taste you all night 
F
Always
                C         Em        Am   
Come on let me hold you, touch you, feel you
F
Always
C         Em        Am       
Kiss you, taste you all night 
F
Always


[Instrumental]

C G/B C Am x2


[Verse]

           C     G/B   Am
I've been here before a few times
         C     G/B    Am
And I'm quite aware we're dying


[Chorus]

                C         Em        Am   
Come on let me hold you, touch you, feel you
F
Always
C         Em        Am       
Kiss you, taste you all night 
F
Always
               C         Em         Am   
Come on let me hold you, touch you, feel you
F
Always
C         Em        Am        
Kiss you, taste you all night 
F
Always


[Outro]

C G/B Am Am x2 

            
            
Suggest correction
Creating personal tab
Creating personal tab
You can edit any tab online and save it as your Personal.

You can edit, replace or remove any tab part or add personal notes – all changes will be seen only by you.

Personal tabs can be accessed anytime from any device, even offline.
Learn more »
Give kudos to tab author, rate the tab!
1 2 3 4 5
comments
print report bad tab
guest
You may want to rate the tab now too:
select rating
Wanna post a correction for this tab? Suggest correction