Oops, an error
Loading. Please wait.
We have an official Anthem Part Two tab made by UG professional guitarists. Check out the tab »
×
12,004 views 135 this week
3 commentsread comments
1 2 3 4 5
x 8
add to favorites
×
Save as Personal and add changes to this tab that will be seen only by you. Learn more ›
×
You can save this tab as Personal to edit and correct it or add notes. All changes will be seen only by you. Learn more »
launch autoscroll
font size
0
reset
how to read this tab
guitar tuner
edit
Autoscroll
slow
fast
+/-
esc
set tempo
stop
Author/Artist: Blink-182 
Title: Anthem part 2 
Album: Take Off Your Pants And Jacket 
Transcribed by: Pat 
Email: pat_waty 

Blink 182 tabs are just too easy to transcribe. 

-|-3---3---1---1---0---0---1---1---------------------------------------------- 
-|---1---1---1---1---1---1---1---1-------------------------------------------- 
-|---------------------------------------------------------------------------- 
-|---------------------------------------------------------------------------- 
-|---------------------------------------------------------------------------- 
-|---------------------------------------------------------------------------- 
 intro                                                                         

-|------------------|--------------------------------------------------------- 
-|------------------|--------------------------------------------------------- 
-|------------------|--------------------------------------------------------- 
-|---2-3--2--2-3--2-|----2-3-2------------------------------------------------ 
-|------------------|----------5--3------------------------------------------- 
-|------------------|--------------------------------------------------------- 
 intro 2                                                                       

-|---------------------------------------------------------------------------- 
-|---------------------------------------------------------------------------- 
-|------------------9-9-9-------------------10-xxx---------------------------- 
-|------------------9-9-9--10-xxx---7-xxx---10-xxx---------------------------- 
-|------------------7-7-7--10-xxx---7-xxx----8-xxx---------------------------- 
-|--------------------------8-xxx---5-xxx------------------------------------- 
       verse 1 and 2                                                           

-|---------------------------------------------------------------------------- 
-|---------------------------------------------------------------------------- 
-|---------------------------------------------------------------------------- 
-|---------------------------------------------------------------------------- 
-|-----7---5---1-------------------------------------------------------------- 
-|---5---3---3---------------------------------------------------------------- 
     right before the chorus                                                   

-|---------------------------------------------------------------------------- 
-|---------------------------------------------------------------------------- 
-|---------------------5-5-5-5------------------------------------------------ 
-|---7-7-7-7--3-3-3-3--5-5-5-5--5-5-5-5--------------------------------------- 
-|---7-7-7-7--3-3-3-3--3-3-3-3--5-5-5-5--------------------------------------- 
-|---5-5-5-5--1-1-1-1-----------3-3-3-3--------------------------------------- 
     chorus                                                                    



            
            
Suggest correction
Creating personal tab
Creating personal tab
You can edit any tab online and save it as your Personal.

You can edit, replace or remove any tab part or add personal notes – all changes will be seen only by you.

Personal tabs can be accessed anytime from any device, even offline.
Learn more »
comments
print report bad tab
3 comments total.
0 reply
superflysam 0 Mar 08, 2002 07:00 PM

hey man this is actualy one of the first tabs ive read that doesn't suck to much

0 reply
Mattius07071988 195 Mar 08, 2002 07:00 PM

It is great but the bit before the chorus should be
-5---3---1-----
---7---5---3---

0 reply
Mattius07071988 195 Mar 08, 2002 07:00 PM

I meant
---7---5---3---
-5---3---1-----

guest
Wanna post a correction for this tab? Suggest correction