Oops, an error
Loading. Please wait.
We have an official Anthem Part Two tab made by UG professional guitarists. Check out the tab »
×
29,745 views 24 this week
2 commentsread comments
1 2 3 4 5
x 26
add to favorites
launch autoscroll
font size
0
reset
guitar tuner
Autoscroll
slow
fast
+/-
esc
set tempo
stop
Author
My First Tab    
The other versions seemed a little off
I made it as detailed as possible

     ~~~ Intro ~~~
G|-----------------------------------|
D|-----------------------------------| 1x
A|-3333----555555-000000-888888------|
E|-----------------------------------|

G|---------------------------------------|
D|---------------------------------------|  
A|-33333333-55555555---------88888888----| 7x 
E|-------------------55555555------------|
and then
G|------------------------------------|
D|------------------------------------|
A|-333333333333------------8888888----| 2x
E|--------------5555555555------------|

                Verse – “Everything has fallen…”

G|------------------------------------|
D|------------------------------------|
A|-333333333--------------------------|
E|-----------55555555-11111111--------|

G|------------------------------------|
D|------------------------------------|
A|-333333333---------88888888---------|
E|-----------5555555------------------|

G|------------------------------------|
D|------------------------------------|
A|-333333333--------------------------|
E|-----------55555555-11111111--------|

G|------------------------------------|
D|------------------------------------|
A|-333333333---------88888888---------|
E|-----------5555555------------------|


G|----------------------------|
D|----14--------12------10~---|
A|-12----12/10-----10/8-------|
E|----------------------------|

     Verse “Corporate Leaders, Politicians…”

G|------------------------------------|
D|------------------------------------|
A|-333333333--------------------------|
E|-----------55555555-11111111--------|

G|------------------------------------|
D|------------------------------------|
A|-333333333---------88888888---------|
E|-----------5555555------------------|


G|------------------------------------|
D|------------------------------------|
A|-333333333--------------------------|
E|-----------55555555-11111111--------|

G|------------------------------------|
D|------------------------------------|
A|-333333333---------88888888---------|
E|-----------5555555------------------|


G|----------------------------|
D|----14--------12------10~---|
A|-12----12/10-----10/8-------|
E|----------------------------|


          Chorus---"We Really Need To..."
G|-------------------------------|
D|-------------------------------|
A|-77777--------3333333----------|     2x
E|-------111111----------333333--|

G|------------------------------------------------|
D|------------------------------------------------|
A|------------------33333333----------------------|    1x
E|-5555555-1111111------------3333333-5555555--1~-|


Bridge

G|--------------------------------|
D|--------------------------------| 2x
A|-333333333333-------------------|
E|--------------5555555-111111----|

     Verse “let this train wreck burn more slowly…”

G|------------------------------------|
D|------------------------------------|
A|-333333333--------------------------|
E|-----------55555555-11111111--------|

G|------------------------------------|
D|------------------------------------|
A|-333333333---------88888888---------|
E|-----------5555555------------------|

G|------------------------------------|
D|------------------------------------|
A|-333333333--------------------------|
E|-----------55555555-11111111--------|

G|------------------------------------|
D|------------------------------------|
A|-333333333---------88888888---------|
E|-----------5555555------------------|


G|----------------------------|
D|----14--------12------10~---|
A|-12----12/10-----10/8-------|
E|----------------------------|


          Chorus---"We Really Need To..."
G|-------------------------------|
D|-------------------------------|
A|-77777--------3333333----------|     2x
E|-------111111----------333333--|

G|------------------------------------------------|
D|------------------------------------------------|
A|------------------33333333----------------------|    1x
E|-5555555-1111111------------3333333-5555555--1~-|

Bridge + “every thing has fallen to pieces”

G|--------------------------------|
D|--------------------------------| 6x
A|-333333333333-------------------|
E|--------------5555555-111111----|

          Chorus---"We Really Need To..."
G|-------------------------------|
D|-------------------------------|
A|-77777--------3333333----------|     2x
E|-------111111----------333333--|

G|------------------------------------------------|
D|------------------------------------------------|
A|------------------33333333----------------------|    1x
E|-5555555-1111111------------3333333-5555555--1~-|


      Ending
G|--------------------------------|
D|--------------------------------| 6x
A|-333333333333-------------------|
E|--------------5555555-111111----|

That’s it... simple as possible

Suggest correction
comments
print report bad tab
2 comments total.
-1 reply
zjcl1 104 Mar 10, 2011 03:41 AM

theres only one part of the song that you don't have tabed here. its on G and D strings
G|---17--|
D|-----17|
i wanna say you play that 10 times. if not more.

0 reply
tyleranberlin 10 Feb 16, 2014 07:59 AM

zicl1 is right, during the bridge after you play it a few times, you can hear mark strumming the d and g 17 at the same time about 10 times.

guest
You may want to rate the tab now too:
select rating
Wanna post a correction for this tab? Suggest correction