Oops, an error
Loading. Please wait.

Blink 182 Tab

version 2
version 2
21,324 views 1 this week
60 commentsread comments
1 2 3 4 5
worth learning
x 31
add to favorites
launch autoscroll
font size
0
reset
how to read this tab
guitar tuner
Tab Pro tools
  • play this tab
  • loop segment
  • change instrument
  • show fretboard
  • metronome
×
Best way to learn
"Blink 182"
Autoscroll
slow
fast
+/-
esc
set tempo
stop
Contributor
Capo
2nd fret
01 Feelin This
tuning:

D A D G B E

CAPO 2 CAPO 2 CAPO 2 CAPO 2
(not that its necessary, he just does it)
CAPO 2 CAPO 2 CAPO 2 CAPO 2
CAPO 2 CAPO 2 CAPO 2 CAPO 2

DROP D DROP D DROP D DROP D (only necessary with capo)

all notes relative to CAPO 2

but watch feelin this on any live thing, its capoed therefore is drop d

dont have a capo? if so, DONT drop d and just put each note
i tabbed up two frets

Intro
---------------------
---------------------
9s7--7--7---7-s11-s9-
x-x--x--x---x--x---x-
7s5--5--50--5-s9--s7-
---------0-----------

Verse
---------------------
---------------------
9s7--7--7---7-s11-s9-
x-x--x--x---x--x---x-
7s5--5--50--5-s9--s7-
---------0-----------

Chorus
--------------------------------
--------------------------------
--------------------------------
0-------------------------------
0-------------------------------
0-------------------------------

Pre-Verse
----------------------------------------------------
----------------------------------------------------
7-7777777s9-9999999s1111111111111111s12-121212121212
x-x-x-x-x-x-x-x-x-x-x-x-x-x-x-x-x-x--x--x-x-x-x-x-x-
5-5555555s7-7777777s9-9-9-9-9-9-9-9-s10-101010101010
----------------------------------------------------

Bridge:
--------------------------------
--------------------------------
--------------------------------
--4--4-4--4--4-4--4--4-4--4--42-
55-55-5-00-00-0-22-22-2---------
------------------------55-55---
...............................

--------------------------------
--------------------------------
--------------------------------
--4--4-4--4--4-4--4-------------
55-55-5-00-00-0-22-22----------- -you can just use your hand on the
---------------------5-55-------  strings if you wanna replace the
...............................   turntables

Outro:
--------------------------------
--------------------------------
--------------------------------
777777772222222244444444--------
55555555000000002222222255555555
------------------------55555555

Fade out
__________________________________

02 Obvious

C#, G#, C#, F#, B, E

Intro/Pre-verse
--------------
--------------
-------5-55-5-
0---0-03-33-3-
0---0-03-33-3-
0---0-03-33-3-

Verse
----------------------------------
----------------------------------
12---------------14---------------
x----------------x----------------
10---------------12---------------
----------------------------------

---------------------------------
---------------------------------
12---------------3---------------
x----------------x---------------
10---------------1---------------
---------------------------------

Chorus
--------------------------------
--------------------------------
--------------------------------
--------------------------------
--------------------------------
33333333333333337775558880002222

Bridge
------------------------------------------
------------------------------------------
----------------10101033366611111110101111
3---------------10101033366611111110101111
2---------------8-8-8-1114449-9-9-8-8-9-9-
------------------------------------------

Bridge Part 2
----------------
----------------
----------------
3-33330--4443-4-
3-33330--4443-4-
3-33330--4443-4-

Outro
--------------------------------
--------------------------------
--------------------------------
xxxxxxxxxxxxxxxxxxxxxxxxxxxxxxxx
33333333333333333333333333333333
33333333333333332222222222222222

--------------------------------
--------------------------------
--------------------------------
xxxxxxxxxxxxxxxxxxxxxxxxxxxxxxxx
33333333333333333333333300000000
33333333333333332222222200000000

End on:
----------------
----------------
----------------
0---------------
0---------------
0---------------
____________________________________________

03 I Miss You

E A D G B E 

Intro/Verse/Bridge
----------------
----------------
-----4-48-88-8--
-----4-48-88-8--
-----2-26-66-6--
----------77-7--

Chorus/Pre-Verse/Outro
you may not agree with this chorus, but listen 
to the version on blink182.com, before they recorded
the other instruments over it
-------------------------------
-------------------------------
4-4-4-44-4-4-4-8-8-8-86-66-6-6-
4-4-4-44-4-4-4-8-8-8-86-66-6-6-
2-2-2-24-4-4-4-6-6-6-64-44-4-4-
-------------------------------

--------------------------------
--------------------------------
--------------------------------
6-6-6-68-88-8-8-9-9-9-99-99-9-9-
6-6-6-68-88-8-8-9-9-9-99-99-9-9-
4-4-4-46-66-6-6-7-7-7-77-77-7-7-
____________________________________________

04 Violence

CAPO 2 CAPO 2 CAPO 2 CAPO 2 CAPO 2 CAPO 2 
CAPO 2 CAPO 2 CAPO 2 CAPO 2 CAPO 2 CAPO 2 
CAPO 2 CAPO 2 CAPO 2 CAPO 2 CAPO 2 CAPO 2 
CAPO 2 CAPO 2 CAPO 2 CAPO 2 CAPO 2 CAPO 2 

all notes relative

Intro
bend around on this: (hard to tab rhythm, but 
use release bends too)
--
--
--
7-
x-
5-

Guitar 2 in intro:
-----------
-----------
-----------
7-77-7-77-7
x-xx-x-xx-x
5-55-5-55-5

Pre-Verse/Chorus
------------------------------
------------------------------
------------------------------
7-77-77-77-7---9-99-99-99-9---
x-xx-xx-xx-x---x-xx-xx-xx-x---
5-55-55-55-5-0-7-77-77-77-7-0-

------------------------------
------------------------------
------------------------------
4-44-44-44-4---6-66-66-66-6---
x-xx-xx-xx-x---x-xx-xx-xx-x---
2-22-22-22-2-0-4-44-44-44-4-0-

Guitar 2 (ONLY IN PRE-VERSE AND INTRO!!!)
------------------------------
------------------------------
6-66-66-66-6-6-4-44-44-44-4-4-
x-xx-xx-xx-x-x-x-xx-xx-xx-x-x-
4-44-44-44-4-4-2-22-22-22-2-2-
------------------------------

------------------------------
------------------------------
------------------------------
7-77-77-77-7-7-6-66-66-66-6-6-
x-xx-xx-xx-x-x-x-xx-xx-xx-x-x-
5-55-55-55-5-5-4-44-44-44-4-4-

Static part for about 9.5 beats (about 19 counting twice
as fast)

No guitar for verse

Bridge
--------------------------------
--------------------------------
--------------------------------
7-------------------------------
x-------------------------------
5-------------------------------

---------------------------------
---------------------------------
---------------------------------
---------------------------------
12---------------7---------------
---------------------------------

--------------------------------
--------------------------------
--------------------------------
7---------------7---------------
--------------------------------
--------------------------------

--------------------------------
--------------------------------
--------------------------------
7-------------------------------
--------------------------------
--------------------------------

--------------------------------
--------------------------------
--------------------------------
7-------------------------------
--------------------------------
--------------------------------

--------------------------------
--------------------------------
--------------------------------
--------------------------------
--------------------------------
--------------------------------
_____________________________________________

05 Stockholm Syndrome

Intro
Guitar 1
--------------------------------------
--------------------------------------
--------------------------------------
5555---------------5555---------------
2222---------------3333--------------- 
0000----------------------------------

--------------------------------------
--------------------------------------
--------------------------------------
5555---------------2222---------------
2222---------------0000--------------- 
--------------------------------------

Guitar 2
--------------------------------------
--------------------------------------
--------------------------------------
--------------------------------------
--------------------------------------
--------------------------------------


-----------------------------------
-----------------------------------
-----------------------70-0----0-4-
-----------------------------------
-----------------------------------
-----------------------------------

Guitar 1
--------------------------------------
--------------------------------------
--------------------------------------
5555---------------5555---------------
2222---------------3333--------------- 
0000----------------------------------

-----------------------------------
-----------------------------------
-----------------------------------
5555---------------2222----5555----
2222---------------0000----3333---- 
-----------------------------------

Guitar 2
----------------------------------------
---------------12------------------12---
----12--12--------------12--12----------
------------12------------------12------
----------------------------------------
----------------------------------------

--------------------------------------
---------------12---------------------
----12--12--------------12---12-------
------------12------------------------
--------------------------------------
--------------------------------------

Chorus
Guitar 1
--------------------------------
--------------------------------
--------------------------------
55555555555555555555555555555555
22222222222222223333333333333333
00000000000000003333333333333333

--------------------------------
--------------------------------
----------------22222222--------
55555555555555552222222255555555
55555555555555550000000055555555
3333333333333333--------33333333

--------------------------------
--------------------------------
--------------------------------
55555555555555555555555555555555
22222222222222223333333333333333
00000000000000003333333333333333

--------------------------------
--------------------------------
----------------22222222--------
55555555555555552222222255555555
55555555555555550000000033333333
3333333333333333----------------


Pre-Verse
--------------------------------
--------------------------------
--------------------------------
----------------555554455555544-
2-(Piano-part)--xxxxxxxxxxxxxxx-
0---------------333332233333322-

--------------------------------
--------------------------------
--------------------------------
----------------555554455555544-
2-(Piano-part)--xxxxxxxxxxxxxxx-
0---------------333332233333322-


--------------------------------
--------------------------------
--------------------------------
5--7--9--5--5-4-555554455555544-
x--x--x--x--x-x-xxxxxxxxxxxxxxx-
3--5--7--3--3-2-333332233333322-

--------------------------------
--------------------------------
--------------------------------
5--7--9--5--5-4-555554455555544-
x--x--x--x--x-x-xxxxxxxxxxxxxxx-
3--5--7--3--3-2-333332233333322-

Verse 2
Guitar 1
--------------------------------
--------------------------------
--------------------------------
--------------------------------
22222222222223232333333333333333
--------------------------------
................................

Guitar 2
--------------------------------
--------------------------------
--------------------------------
--------------------------------
--------------------------------
-----------------3333222--------
                 .......

Guitar 1
--------------------------------
--------------------------------
--------------------------------
--------------------------------
222222222222222200000000--------
------------------------33333333
................................

Guitar 2
--------------------------------
--------------------------------
--------------------------------
--------------------------------
-------------------------5555222
--------------------------------
                         .......

Guitar 1
--------------------------------
--------------------------------
--------------------------------
--------------------------------
22222222222223232333333333333333
--------------------------------
................................

Guitar 2
--------------------------------
--------------------------------
--------------------------------
--------------------------------
2222----------------------------
--------------------------------
....                     

Guitar 3
--------------------------------------
--------------------------------------
----14--12-------------11--12---------
12-----------------12-----------------
--------------------------------------
--------------------------------------

Guitar 1
--------------------------------
--------------------------------
--------------------------------
--------------------------------
222222222222222200000000--------
------------------------33333333
................................

Guitar 3
-------------------------------------
-------------------------------------
----14--12-------------11--12--------
12-----------------------------------
-------------------------------------
-------------------------------------

Guitar 1
--------------------------------
--------------------------------
--------------------------------
--------------------------------
22222222222223232333333333333333
--------------------------------
................................

Guitar 3
-------------------------------------
-------------------------------------
----14--12-------------14--11--------
12-----------------------------------
-------------------------------------
-------------------------------------

Guitar 1
--------------------------------
--------------------------------
--------------------------------
--------------------------------
2222222200000000----------------
----------------3---------------
................

Guitar 3
------------------------------
------------------------------
14--11----------14--11--------
------------------------------
------------------------------
------------------------------

Bridge
Guitar 1
--------------------------------
--------------------------------
--------------------------------
55555555555555555555555555555555
22222222222222223333333333333333
--------------------------------

--------------------------------
--------------------------------
--------------------------------
555555555555555522222222--------
22222222222222220000000055555555
------------------------33333333

Outro Chorus
Guitar 1
--------------------------------
--------------------------------
--------------------------------
55555555555555555555555555555555
22222222222222223333333333333333
00000000000000003333333333333333

--------------------------------
--------------------------------
----------------22222222--------
55555555555555552222222255555555
55555555555555550000000055555555
3333333333333333--------33333333

Guitar 2
----------------------------------------
---------------12------------------12---
----12--12--------------12--12----------
------------12------------------12------
----------------------------------------
----------------------------------------

Guitar 1
--------------------------------
--------------------------------
--------------------------------
55555555555555555555555555555555
22222222222222223333333333333333
00000000000000003333333333333333

--------------------------------
--------------------------------
----------------22222222--------
55555555555555552222222255555555
55555555555555550000000033333333
3333333333333333----------------

Guitar 2
--------------------------------------
---------------12---------------------
----12--12--------------12---12-------
------------12------------------------
--------------------------------------
--------------------------------------

Guitar 1 End on:
----------------
----------------
----------------
5---------------
2---------------
0---------------
__________________________________________
06 Down

Capo 2 (STILL not necessary, tom does it to look
cool i bet)
Capo 2 (STILL not necessary, tom does it to look
cool i bet)
Capo 2 (STILL not necessary, tom does it to look
cool i bet)
Capo 2 (STILL not necessary, tom does it to look
cool i bet)

all notes relative to CAPO TWO

Intro
----------------
----------------
----------------
7-77xx7-77xx77xx
x-xxxxx-xxxxxxxx
5-55xx5-55xx55xx

Pre-Verse 1
----------------
----------------
----------------
7-77xx7-77xx77xx
x-xxxxx-xxxxxxxx
5-55xx5-55xx55xx

Verse 1
--------------------------------
--------------------------------
--------------------------------
7777--7777--77--4444--6666--66--
xxxx--xxxx--xx--xxxx--xxxx--xx--
5555--5555--55--2222--4444--44--

Chorus
--------------------------------
--------------------------------
--------------------------------
4-44--4-44--44--6-66--6-66--66--
4-44--4-44--44--6-66--6-66--66--
2-22--2-22--22--4-44--4-44--44--

--------------------------------
--------------------------------
--------------------------------
7-77--7-77--77--2-22--2-22--22--
7-77--7-77--77--2-22--2-22--22--
5-55--5-55--55--0-00--0-00--00--

P

No guitar during 2nd verse (that might be a guitar, but its the same as
the first verse except with volume swells)
____________________________________________________________

07 The Fallen Interlude

00:10
17-----------------------------15-s19--------------- slide up to & pick 19
----------------------------------------------------
----------------------------------------------------
----------------------------------------------------
----------------------------------------------------
----------------------------------------------------

--------------------------------------------------
----------------7h8p7-----------------------------
--------------------------------------------------
--------------------------------------------------
--------------------------------------------------
--------------------------------------------------

------------------------------------12/-----------
--------------------------------------------------
--------------------------------------------------
--------------------------------------------------
--------------------------------------------------
--------------------------------------------------

------------------------------------------------
------------------------------------------------
------------------------------------------------
------------------------------------------------
------------------------------------------------
------------------------------------------------

------------------------------------------------
------------------------------------------------
------------------------------------------------
------------------------------------------------
------------------------------------------------
------------------------------------------------     

----------------------------------------------------
----------------------------------------------------
------------------------16--14--12-s14--------------
------------------------17--16--14-s16--------------
----------------------------------------------------
----------------------------------------------------

for this part, i recommend hammering on the
D string middle to ring finger and sliding
on the G string with your first finger
(this is all at the same time)
---------------------------------
---------------------------------
--------------11s12--------------
--------------12h14--------------
---------------------------------
---------------------------------

anyways i now know that its useless to finish tabbing the rythym cus itd be
too annoying to actually count, so the only other note is

19-
---
---
---
---
---
______________________________________________

08 GO

Intro/Pre-Verse
--------------------------------
--------------------------------
9999999999999999----------------
99999999999999993333333333333333
77777777777777773333333333333333
88888888888888881111111111111111

Verse
--------------------------------
--------------------------------
--------------------------------
--------------------------------
3333333333332235----------------
----------------1111111111111111

Chorus
--------------------------------
--------------------------------
22222222--------22222222--------
22222222333333332222222233333333
00000000333333330000000033333333
--------11111111--------11111111

Bridge
Guitar 1
--------------------------------
--------------------------------
--------------------------------
--------------------------------
3--5--7-----3-2-3--5--3---------
--------------------------------

Guitar 2
--------------------------------
--------------------------------
--------------------------------
5555555555555555----------------
33333333333333333333333333333333
----------------1111111111111111
................................

Guitar 1
--------------------------------
--------------------------------
--------------------------------
--------------------------------
3--5--3-------2-3---------------
--------------------------------

Guitar 2
--------------------------------
--------------------------------
--------------------------------
5555555555555555----------------
33333333333333333333333333333333
----------------1111111111111111
................................

Guitar 1
--------------------------------
--------------------------------
--------------------------------
5--Feedback-while-ringing-this--
3-------------------------------
--------------------------------
                                 
--------------------------------
--------------------------------
--------------------------------
--------------------------------
--------------------------------
--------------------------------

--------------------------------
--------------------------------
--------------------------------
7-------------------------------
7-------------------------------
5-------------------------------

Outro
------------------------------------
------------------------------------
999999999999999955557777999910101010
9999999999999999xxxxxxxxxxxxx-x-x-x-
77777777777777773333555577778-8-8-8-
8888888888888888--------------------

------------------------------------
------------------------------------
999999999999999955557777999910101010
9999999999999999xxxxxxxxxxxxx-x-x-x-
77777777777777773333555577778-8-8-8-
8888888888888888--------------------

------------------------------------
------------------------------------
999999999999999955557777999910101010
9999999999999999xxxxxxxxxxxxx-x-x-x-
77777777777777773333555577778-8-8-8-
8888888888888888--------------------

------------------------------------
------------------------------------
9999999999999999--------------------
99999999999999993-------------------
77777777777777773-------------------
88888888888888881-------------------
_____________________________________________

09 Asthenia

D A D G B E 

DROPPED D DROPPED D DROPPED D DROPPED D
DROPPED D DROPPED D DROPPED D DROPPED D

Intro/Pre-Verse
--------------------------------
------7-------------------------
7-----------------------7-----6-
---0-----------------------0----
--------------------------------
--------------------------------

Verse 
--------------------------------
--------------------------------
7-------6-------4-------6-------
--------------------------------
--------------------------------
--------------------------------

Pre-Chorus/Outro
Guitar 1
--------------------------------
--------------------------------
77667799776677997766779977667799
xxxxxxxxxxxxxxxxxxxxxxxxxxxxxxxx
55445577554455775544557755445577
--------------------------------

--------------------------------
--------------------------------
776677997766----7766779977667799
xxxxxxxxxxxx0000xxxxxxxxxxxxxxxx
55445577554400005544557755445577
------------0000----------------
            ....

--------------------------------
--------------------------------
7766779977667799776677997766----
xxxxxxxxxxxxxxxxxxxxxxxxxxxx0000
55445577554455775544557755440000
----------------------------0000
                            ....

Chorus
(this is roughly the arrangement of notes,
i did however tab when the next bass note
comes in)
--------------------------------
--------------------------------
--------------------------------
--------------------------------
--5-5---5-5--5----5-5---5-5--5--
44----55----5---77----77----7---

--------------------------------
--------------------------------
--------------------------------
--------------------------------
--5-5---5-5--5----5-5---4-------
44----55----5---77----7---------

Bridge
Guitar 1
----------------------------
----------------------------
77777-77777-7777------------
xxxxx-xxxxx-xxxx------------
55555-55555-5555------------
----------------------------

----------------------------
----------------------------
----------------------------
----------------------------
----------------------------
----------------------------

Guitar 2
----------------------------
----------------------------
----------------------------
----------------------------
----------------------------
----------------------------

----------------------------
----^-----------------------
77777-77777-7777------------
xxxxx-xxxxx-xxxx------------
55555-55555-5555------------
----------------------------

Guitar 1
--------------------------------------
--------------------------------------
1111111111-1111111111-99999-----------
x-x-x-x-x--x-x-x-x-x--xxxxx-----------
9-9-9-9-9--9-9-9-9-9--77777-----------
--------------------------------------

----------------------------
----------------------------
----------------------------
----------------------------
----------------------------
----------------------------

Guitar 2
----------------------------
-^--^---^------^^^^^--------
77777-77777-7777------------
xxxxx-xxxxx-xxxx------------
55555-55555-5555------------
----------------------------

----------------------------
----^-----------------------
77777-77777-7777------------
xxxxx-xxxxx-xxxx------------
55555-55555-5555------------
----------------------------

Guitar 1
---------------------------
---------------------------
---------------------------
-----4444555542222222------
-5555----------------------
-0000----------------------
 ....

---------------------------------
---------------------------------
---------------------------------
------44444444555542222222-------
-5-5--5555-----------------------
-0-0-----------------------------
 . .  ....

----------------------------------
----------------------------------
----------------------------------
-----44444444555542222222---------
55-555555-------------------------
00-00-----------------------------
.. ......

---------------------------------
---------------------------------
---------------------------------
------44444444555542222222-------
-5-5--5555-----------------------
-0-0-----------------------------
 . .  ....

Drum Solo
----------------------------------------------------------------
----------------------------------------------------------------
----------------------------------------------------------------
0---------------------------------------------------------------
0---------------------------------------------------------------
0---------------------------------------------------------------

Outro
--------------------------------
--------------------------------
77667799776677997766779977667799
xxxxxxxxxxxxxxxxxxxxxxxxxxxxxxxx
55445577554455775544557755445577
--------------------------------

--------------------------------
--------------------------------
776677997766----7766779977667799
xxxxxxxxxxxx0000xxxxxxxxxxxxxxxx
55445577554400005544557755445577
------------0000----------------
            ....

End on:
--
--
--
5-
5-
5-
_________________________________________________

10 Always

Intro
No guitar

Verse 1 (And your hands)
--------------------------------
--------------------------------
--------------------------------
--------------------------------
99999999444444446666666666666666
77777777666666664444444444444444
................................

--------------------------------
--------------------------------
--------------------------------
--------------------------------
99999999444444446666666644444444
77777777666666664444444422222222
................................

Pre-Chorus
Guitar 1
--------------------------------
--------------------------------
x4------------------------------
x4------------------------------
x2------------------------------
--------------------------------

--------------------------------
--------------------------------
x4------------------------------
x4------------------------------
x2------------------------------
--------------------------------

Guitar 2
--------------------------------
--4--4----4--4----4--4----------
4---4---4---4---4---4---4---4---
--------------------------------
--------------------------------
--------------------------------

--------------------------------
--4--4----4--4----4--4----------
4---4---4---4---4---4---4---4---
--------------------------------
--------------------------------
--------------------------------

Chorus (always let me)
--------------------------------
--------------------------------
4444444488888888----------------
xxxxxxxxxxxxxxxx6666666622222222
2222222266666666xxxxxxxxxxxxxxxx
----------------4444444400000000

Pre-Verse
--------------------------------
--4--4----4--4----4--4----------
4---4---4---4---4---4---4---4---
--------------------------------
--------------------------------
--------------------------------

--------------------------------
--4--4----4--4----4--4----------
4---4---4---4---4---4---4---4---
--------------------------------
--------------------------------
--------------------------------

Verse 2 (And I'll miss)
--------------------------------
--------------------------------
--------------------------------
--------------------------------
6-----6-4-----4-6---------------
---7-------6-------4--2-4-------

Bridge
Guitar 1
--------------------------------
--------------------------------
444444443333333344444444-8888444
xxxxxxxxxxxxxxxxxxxxxxxx-xxxxxxx
222222221111111122222222-6666222
--------------------------------


Guitar 2 
--------------------------------
4-4-4-454-4-4-454-4-4-454-454-45
--------------------------------
--------------------------------
--------------------------------
--------------------------------

Guitar 1
--------------------------------
--------------------------------
444444443333333344444444-8888446
xxxxxxxxxxxxxxxxxxxxxxxx-xxxxxxx
222222221111111122222222-6666224
--------------------------------

Guitar 2 
--------------------------------
4-4-4-454-4-4-454-4-4-454-454-45
--------------------------------
--------------------------------
--------------------------------
--------------------------------

Post-Bridge
Guitar 1
--------------------------------
--------------------------------
--------------------------------
--------------------------------
8-------6-------2-----------24--
--------------------------------

--------------------------------
--------------------------------
--------------------------------
--------------------------------
8-------6-------2---------------
--------------------------------

Outro:
Guitar 2
--------------------------------
4-4-4-454-4-4-454-4-4-454-454-45
--------------------------------
--------------------------------
--------------------------------
--------------------------------
repeat 3x, then on final:

--------------------------------
4-4-4-454-4-4-454-4-4-454-454--5
------------------------------4-
--------------------------------
--------------------------------
--------------------------------

end on:
--------------------------------
4-------------------------------
--------------------------------
--------------------------------
--------------------------------
--------------------------------
________________________________________________

11 Easy Target

Intro/Chorus (Holly's lookin dry)
--------------------------------
--------2---------------2-------
--------2222------------2222----
44444444222222224444444422222222
44444444000022224444444400002222
22222222----000022222222----0000

Verse 1
--------------------------------
--------------------------------
--------------------------------
11111111111111111111111111111111
x-x-x-x-x-x-x-x-x-x-x-x-x-x-x-x-
9-9-9-9-9-9-9-9-9-9-9-9-9-9-9-9-

-----------------
-----------------
-----------------
9991111117-------
xxxx-x-x-x-------
7779-9-9-5-------

Verse two
--------------------------------
--------------------------------
--------------------------------
7-------------------------------
x-------------------------------
5-------------------------------

--------------------------------
--------------------------------
--------------------------------
--------------------------------
--------------------------------
--------------------------------

----------------------------------
----------------------------------
----------------------------------
11---------------9--s11--7--------
x----------------x--sx---x--------
9----------------7--s9---5--------

Bridge
--------------------------------
--------------------------------
77777777--------77777777--------
77777777777722227777777777772222
55555555777722225555555577772222
--------55550000--------55550000

--------------------------------
--------------------------------
77777777--------7777777766666666
77777777777722227777777766666666
55555555777722225555555544444444
--------55550000----------------

Outro
---------------------------
---------------------------
---------------------------
4/6/7/9\7-7/9/11-11/12\9-9-
x-x-x-x-x-x-x-x--x--x--x-x-
2/4/5/7\5-5/7/9--9-/10\7-7-

play till fadeout
____________________________________________

12 All of This

Intro (Acoustic)
---------------------------
---------------------------
---------------------------
4/6/7/9\7-7/9/11-11/12\9-9-
0~--------0~-----0~------0-
2/4/5/7\5-5/7/9--9-/10\7-7-

------------------
------------------
------------------
4/6/7/9\7-7~------
0~--------0~------
2/4/5/7\5-5~------

Verse 1 (Acoustic)
--------------------------------
--------------------------------
--------------------------------
11111111111111111111111111111111
0-0-0-0-0-0-0-0-0-0-0-0-0-0-0-0-
9-9-9-9-9-9-9-9-9-9-9-9-9-9-9-9-

-----------------
-----------------
-----------------
9991111117-------
0000-0-0-0-------
7779-9-9-5-------

Chorus 1 (Acoutic)
--------------------------------
--------------------------------
--------------------------------
44444444444466667777777777779999
00000000000000000000000000000000
22222222222244445555555555557777

Pre-Verse (Electric)
---------------------------
---------------------------
---------------------------
4/6/7/9\7-7/9/11-11/12\9-9-
0~--------0~-----0~------0-
2/4/5/7\5-5/7/9--9-/10\7-7-

------------------
------------------
------------------
4/6/7/9\7-7~------
0~--------0~------
2/4/5/7\5-5~------

Verse 2 (Electric)
--------------------------------
--------------------------------
--------------------------------
--------------------------------
--------------------------------
--------------------------------

--------------------------------
--------------------------------
--------------------------------
--------------------------------
--------------------------------
--------------------------------

--------------------------------
--------------------------------
--------------------------------
11111111111111111111111111111111
0-0-0-0-0-0-0-0-0-0-0-0-0-0-0-0-
9-9-9-9-9-9-9-9-9-9-9-9-9-9-9-9-

-----------------
-----------------
-----------------
9991111117-------
0000-0-0-0-------
7779-9-9-5-------

Chorus 2 (Electric)
--------------------------------
--------------------------------
--------------------------------
44444444444466667777777777779999
00000000000000000000000000000000
22222222222244445555555555557777

Bridge (Electric)
---------------------------
---------------------------
---------------------------
4/6/7/9\7-7/9/11-11/12\9-9-
0~--------0~-----0~------0-
2/4/5/7\5-5/7/9--9-/10\7-7-

---------------------------
---------------------------
---------------------------
4/6/7/9\7-7/9/11-11/12\9-9-
0~--------0~-----0~------0-
2/4/5/7\5-5/7/9--9-/10\7-7-

---------------------------
---------------------------
---------------------------
4/6/7/9\7-7/9/11-11/12\9-9-
0~--------0~-----0~------0-
2/4/5/7\5-5/7/9--9-/10\7-7-

---------------------------
---------------------------
---------------------------
4/6/7/9\7-7/9/11-11/12\9-9-
0~--------0~-----0~------0-
2/4/5/7\5-5/7/9--9-/10\7-7-

--------------------------------
--------------------------------
--2--2--2--2--11---2--2--2--2-11
--------------22--------------22
--------------------------------
--------------------------------

--------------------------------
------------------------------00
--2--2--2--2--11---2--2--2--2-11
--------------22----------------
--------------------------------
--------------------------------

Final Chorus (Electric)
---------------------------
---------------------------
---------------------------
4/6/7/9\7-7/9/11-11/12\9-9-
0~--------0~-----0~------0-
2/4/5/7\5-5/7/9--9-/10\7-7-

Outro
--------------------------------
--------------------------------
--------------------------------
11111111111111111111111111111111
0-0-0-0-0-0-0-0-0-0-0-0-0-0-0-0-
9-9-9-9-9-9-9-9-9-9-9-9-9-9-9-9-

-----------------
-----------------
-----------------
9991111117-------
0000-0-0-0-------
7779-9-9-5-------
________________________________________

13 Here's Your Letter

Intro
----------------
----------------
----------------
----------------
0000000000000000
----------------

Pre-Verse
--------------------------------
--------------------------------
99999999999999996666666644444444
99999999999999996666666644444444
77777777777777774444444422222222
--------------------------------

--------------------------------
--------------------------------
--------77777777----------------
44444444777777777777777777777777
4444444455555555xxxxxxxxxxxxxxxx
22222222--------5555555555555555

Verse (on 2nd half of verse, guitar comes in)
--------------------------------
--------------------------------
--------------------------------
--------------------------------
------00000000000000000004442454
222244--------------------------
................................

--------------------------------
--------------------------------
----------------6---------------
----------------7---------------
------------00000---------------
222222224444--------------------
................                 

Chorus
-------------------------------
-------------------------------
---666----------7-77-7--77-7---
7776662224444444x-xx-x--xx-x---
77744422244444445-55-5--55-5---
555---0002222222---------------

Bridge
--------------------------------
--------------------------------
---------------7-777777777777777
77-77-77-77-7777-777777777777777
77-77-77-77-7775-555555555555555
55-55-55-55-555-----------------

--------------------------------
--------------------------------
---------------7-777777777777777
77-77-77-77-7777-777777777777777
77-77-77-77-7775-555555555555555
55-55-55-55-555-----------------

--------------------------------
--------------------------------
--------------------------------
44444444444444446666666666666666
44444444444444446666666666666666
22222222222222224444444444444444

--------------------------------
--------------------------------
--------------------------------
77777777777777777777777777777777
77777777777777777777777777777777
55555555555555555555555555555555

--------------------------------
--------------------------------
--------------------------------
44444444444444446666666666666666
44444444444444446666666666666666
22222222222222224444444444444444

--------------------------------
--------------------------------
--------------------------------
77777777777777777777777777777777
77777777777777777777777777777777
55555555555555555555555555555555

Outro
--------------------------------
--------------------------------
99999999999999996666666644444444
99999999999999996666666644444444
77777777777777774444444422222222
--------------------------------

--------------------------------
--------------------------------
--------77777777----------------
44444444777777777777777777777777
4444444455555555xxxxxxxxxxxxxxxx
22222222--------5555555555555555

End on:
--
--
9-
9-
7-
--
__________________________________________

14 I'm Lost Without You

Chorus
--------------------------------
--------------------------------
--------------------------------
7-7-7-7-6-6-6-6-4-4-4-4-6-6-6-6-
x-x-x-x-x-x-x-x-x-x-x-x-x-x-x-x-
5-5-5-5-4-4-4-4-2-2-2-2-4-4-4-4-

end chorus on 
-
-
-
7
x
5

Verse 2 (listen closely)
--------------------------------
--------------------------------
--------------------------------
44444444666666667777777799999999
44444444666666667777777799999999
22222222444444445555555577777777

Bridge
Guitar 1
--------------------------------
--------------------------------
--------------------------------
7-7-7-7-6-6-6-6-4-4-4-4-6-6-6-6-
x-x-x-x-x-x-x-x-x-x-x-x-x-x-x-x-
5-5-5-5-4-4-4-4-2-2-2-2-4-4-4-4-

Guitar 2
------------------------------------------------
10-10-10-10-12-12-12-12-10-10-10-10-12-12-12-12-
--9--9--9--9--9--9--9--9--9--9--9--9--9--9--9--9
------------------------------------------------
------------------------------------------------
------------------------------------------------

Final Chorus
Guitar 1
--------------------------------
--------------------------------
--------------------------------
7-7-7-7-6-6-6-6-4-4-4-4-6-6-6-6-
x-x-x-x-x-x-x-x-x-x-x-x-x-x-x-x-
5-5-5-5-4-4-4-4-2-2-2-2-4-4-4-4-

Guitar 2
------------------------------------------------
10-10-10-10-12-12-12-12-10-10-10-10-12-12-12-12-
--9--9--9--9--9--9--9--9--9--9--9--9--9--9--9--9
------------------------------------------------
------------------------------------------------
------------------------------------------------

repeat until end
___________________________________________________

well thats it. please dont give me a bad rating JUST for writing
corrections in someone elses and everyone getting mad cus i was right...
comments
print report bad tab
60 comments total. Showing first comments.
0 reply
CJOgeetar wrote on December 24 2003, 12:00 am

UGSTRANGER YOURE FULL OF *** (THE FIRST ONE) YOURE JUST BITCHING CUS YOU KNOW THAT ITS BETTER. NAME 60 MISTAKES LIKE I DID FOR MACBETH AND THEN ILL BE CONVINCED. AND GUESS WHAT? TOM USES A CAPO REGARDLESS, AND THEY EFFECT HARMONICS!

0 reply
CJOgeetar wrote on December 24 2003, 12:00 am

i only see one mistake: i forgot the "down, down, down, down"... but i just accidentally overlooked it, otherwise i wouldnt have been able to correct macbeth for his wrong version of the chorus

0 reply
Macbeth182 wrote on December 24 2003, 12:00 am

thats a good tab CJOgeetar. i notice some differences, but you may be right i can't count too many mistakes that i'm sure about. nut i guess we'll never know untill the book comes out. but good job

I want to post or [tab]
guest
You may want to rate the tab now too:
select rating
Please do not post tabs as comments. Select "correction" instead!